Song name
# A B C D E F G H I J K L M N O P Q R S T U V W X Y Z

Hawthorne Heights - Niki Fm tab

Highlighted       Show chord diagrams
HAWTHORNE HEIGHTS - Niki FM

Intro: 

e|----------------------|     |---------------------|
b|----------------------|     |---------------------|
g|----------------------|     |----6---------2------|
D|---6---7--9--6---7----|(2X) |----6----2----2------|
A|---4---6--7--7---6----|     |----4----2----0------|
E|-------------5---7--- |     |---------0-----------|

Verse1:
C#5
  Let's go down now
              A5   - B5
  into the darkness 
C#5 
  of your thoughts 
        A5    - B5
  hurry up now 
C#5
  we're waiting for 
        A5   - B5
  us to fall 
C#5
  I fall to pieces now (I fall to pieces now) 
                  A5               - B5
  a broken mirror (I fall to pieces) 
  in your life 

Pre-chorus:
C#5           A5
  Silence in black and white 
C#5                   A5
  falling forward as she walks toward the light 

C#5-E5-A5

Chorus:
       C#5-E5-A5      
I KNOW
       B5               A5     B5
  I'm outside of your window with my radio 

Verse2: same chords as verse1
I sleep with one eye open so I can 
see you breathing (I sleep with one eye open) 
I follow your chest home
Until I, (so I can see you breathing)
I can see you, I can hear you breathe in exhale

C#5           A5
  Silence in black and white 
C#5-A5

Chorus:
       C#5-E5-A5      
I KNOW
       B5               A5     B5
  I'm outside of your window with my radio
 
C#5-E5-A5

       C#5-E5-A5      
I KNOW
       B5               A5     B5
  I'm outside of your window with my radio 

e|----------------------------------|     
b|----------------------------------|    
g|----------------------------------|    
D|----------------------------------|(2X) 
A|---4444444466667777---------------|     
E|-------------------555555777777---|    

    Know..(2X)
e|----------------------|     
b|----------------------|    
g|----------------------|     
D|---6---7--9--6---7----|(2X) 
A|---4---6--7--7---6----|     
E|-------------5---7--- |     

CP: C#5-B5-A5-B5 (4x)

I'm outside of your window 
with my radio (so I can see you breathing) 
I'm outside of your window 
with my radio (so I can see you breathing) 
I'm outside of your window (one eye open)
with my radio (so I can see you breathing) 

*use this tab for the last part...
e|----------------------|     
b|----------------------|    
g|----------------------|     
D|---6---7--9--6---7----|(2X) 
A|---4---6--7--7---6----|     
E|-------------5---7--- |    
 
I'm outside of your window with my radio 
you are the only station 
you play the song I know 
you are the song I know

end with - 

e|-------|     
b|-------|    
g|-------|     
D|---7---|(2X) 
A|---6---|     
E|---7---|     
Tap to rate this tab
# A B C D E F G H I J K L M N O P Q R S T U V W X Y Z