Song name
# A B C D E F G H I J K L M N O P Q R S T U V W X Y Z

Hawthorne Heights - Speeding Up The Octives tab

Tuning:Standard

e|----------------------------------|
B|----------------------------------|
G|-9--------9-----------------------|
D|--9-10--9---9-10---9---7-9--------|
A|------12--------12--10----9-10-7--|
E|----------------------------------|

e|-------------------------------------------------------|
B|-------------------------------------------------------|
G|--------------5-5--5-5-5--2-2--2-2-2--3-3--5-5-5-5-----|
D|----2--2-2-2--5-5--5-5-5--2-2--2-2-2--3-3--5-5-5-5---2~|
A|----2--2-2-2--3-3--3-3-3--0-0--0-0-0--2-2--3-3-3-3---2~|
E|----0--0-0-0-----------------------------------------0~|
Tap to rate this tab
 
# A B C D E F G H I J K L M N O P Q R S T U V W X Y Z