Guitaretab - guitar tabs
Song name
# A B C D E F G H I J K L M N O P Q R S T U V W X Y Z

Hawthorne Heights - Angels With Even Filthier Soul tab

Hey I noticed that there was no tab for this song and i was messing around one day and
figuried the whole thing out. But bare with me because this is my first time writing a
tab. TABED BY: Jordan Glockler for Acoustic

Regular Tuning...and you will have to figure out the strumming
---------------Intro-----------------

e|------0-----0-----0---------------|
b|------1-----0-----0---------------|
g|------2-----1-----2---------------|
d|------2-----2-----3---------------|
a|------0-----2-----3---------------|
E|----------------------------------|

e|------0-----0-----0-------3-------|
b|------1-1h3-0-1h3-0---------------|
g|------2-----1-----2---------------|
d|------2-----2-----3---------------|
a|------0-----2-----3---------------|
E|----------------------------------|

e|------0-----0-----0-------3-------|
b|------1-1h3-0-1h0-0---------------|
g|------2-----1-----2---------------|
d|------2-----2-----3---------------|
a|------0-----2-----3---------------|
E|----------------------------------|
[ Tab from: http://www.guitaretab.com/h/hawthorne-heights/65112.html ]
-------------verse-------------------
Palm
e|----------------------------------|
b|------1xxxxx0xxxxx0xxxxx0---------|
g|------2xxxxx1xxxxx2xxxxx0---------|  x4
d|------2xxxxx2xxxxx3xxxxx0---------|
a|------0xxxxx2xxxxx3xxxxx0---------|
E|------0xxxxx0xxxxx0xxxxx0---------|

e|------00----00----00--0000--------|
b|------11----00----00--0000--------|
g|------22----11----22--2222--------|  x4
d|------22----22----33--3333--------|
a|------00----22----33--3333--------|
E|----------------------------------|

e|--------------------------------------------|
b|--------------------------------------------|
g|----5-5-5-5--7-7-7-7------------------------|  x2
d|----5-5-5-5--7-7-7-7---33xx33xx33xx33xx-----|
a|----3-3-3-3--5-5-5-5---33xx33xx33xx33xx-----|
E|----3-3-3-3--5-5-5-5---11xx11xx11xx11xx-----|

e|----------------------------|
b|----------------------------|
g|----------------------------|
d|------77/5/7--333--555------|  x8
a|------77/5/7--333--555------|
E|------55/3/5--111--333------|

And Just Need to Repeat it all over again


Related for Angels With Even Filthier Soul tab
Advertisement will be closed in 10 seconds