Song name
# A B C D E F G H I J K L M N O P Q R S T U V W X Y Z

Hawthorne Heights - Sandpaper And Silk tab

Hawthorne Heights
Sandpaper And Silk
The Silence Of Black And White
Tabbed By: Richard Smerdon 23/12/05
Sorry to the weird little man that said ehh... missing stuff 

This site told me it didn't like intros so. . . . I've tabbed the song from the rocky bit
0:08s Full Distortion.
e|---------------------|
B|---------------------|
G|-----------6---------|
D|-----7-----6---------|Play twice. Listen to the song for timing.
A|-----7-----4---------|
E|-----5---------------|

Verse 1. The timing has to be perfect so listen to the song.
0:26s Clean tone with a bit of distortion.
e|----------------------------------------------------|
B|--------6-----6-----6-----6-----0-----0-----0-------|
G|-------6-----6-----6-----6-----2-----2-----2--------|Play Twice
D|------6-----------6-----------2-----------2---------|
A|-----4-----4-----4-----4-----0-----0-----0-----0----|
E|----------------------------------------------------|

Pre chorus.
0:49s Clean tone with a bit of distortion.
e|---------------------------------------------------------------------------|
B|------9--7-7-7-7-----9--7-7-7-7-----5--4-4-4-4-----5--4-4-4-4--------------|
G|---------------------------------------------------------------------------|
D|---------------------------------------------------------------------------|
A|---------------------------------------------------------------------------|
E|---------------------------------------------------------------------------|
0:54s Chorus. Full distortion.
e|------------------------------------------------------------|
B|------------------------------------------------------------|
G|----------------4----------6--------------------------------|
D|-----7----------4----------6--------------------------------|
A|-----7----------2----------4--------------------------------|
E|-----5------------------------------------------------------|

1:01s Verse 2. Clean tone with a bit of distortion.
e|-----------------------------------------------------------|
B|--------6-----6-----6-----6-----0-----0-----0--------------|
G|-------6-----6-----6-----6-----2-----2-----2---------------|
D|------6-----------6-----------2-----------2----------------|Play Twice
A|-----4-----4-----4-----4-----0-----0-----0-----0-----------|
E|-----------------------------------------------------------|

1:24s Pre chorus. Clean tone with a bit of distortion.
e|---------------------------------------------------------------------------|
B|------9--7-7-7-7-----9--7-7-7-7-----5--4-4-4-4-----5--4-4-4-4--------------|
G|---------------------------------------------------------------------------|
D|---------------------------------------------------------------------------|
A|---------------------------------------------------------------------------|
E|---------------------------------------------------------------------------|

1:30s Chorus. Full Distortion. Listen to the song for timing.
This chorus is different, you play it twice and second, when you get to the third power 
you can play the chord or play the solo bit above it.
e|----------------------------------------------------------------------------------------|
B|------------------------------7/9--7-7-7-7-----9--7-7-7-7-----5--4-4-4-4-----5--4-4-4-4-|
G|----------------4----------6------------------------------------------------------------|
D|-----7----------4----------6------------------------------------------------------------|
A|-----7----------2----------4------------------------------------------------------------|
E|-----5----------------------------------------------------------------------------------|

1:48s Bridge. Clean tone. Add distortion for effect.
Listen to the song for timing.
e|--------------------------------------------0----------------|
B|---------------------------------------------0---------------|
G|-----6-----4-----------4--------6-----4-------2--------------|
D|-----6-----4-----7-----4--------6-----4--------2-------------|
A|-----4-----2-----7-----2--------4-----2---------0------------|
E|-----------------5-------------------------------*-----------|

2:00s Still bridge.
e|-----------------------------------------------------------------------------0-------|
B|-----2---5-4-2-----0--5-4-2-----0--2-4-2-4-2-0-----2--5-4-2-----0--5-4-2------0------|
G|-------------------------------------------------------------------------------2-----|
D|--------------------------------------------------------------------------------2----|
A|---------------------------------------------------------------------------------0---|
E|----------------------------------------------------------------------------------*--|
2:12s Interlude. Full Distortion. Listen to the song for timing.
e|------------------------------------------------------------------------|
B|------------------------------------------------------------------------|
G|-----6-----6-6---------6-----6-6---------6-----6-6--------6-------------|
D|-----6-----6-6---------6-----6-6---------6-----6-6--------6-LET-RING----|
A|-----4-----4-4---------4-----4-4---------4-----4-4--------4-------------|
E|------------------------------------------------------------------------|
2:37s Chorus. Full Distortion. Listen to the song for timing. Play three times, but on 
third time when you get to the third power chord play the outro.
e|----------------------------------------------------------------------------------------|
B|------------------------------7/9--7-7-7-7-----9--7-7-7-7-----5--4-4-4-4-----5--4-4-4-4-|
G|----------------4----------6------------------------------------------------------------|
D|-----7----------4----------6------------------------------------------------------------|
A|-----7----------2----------4------------------------------------------------------------|
E|-----5----------------------------------------------------------------------------------|
3:06s Outro. Full Distortion.
e|---------------------------------------|
B|---------------------------------------|
G|-----6-*-*-*---6-*-*-*-----------------|
D|-----6-*-*-*---6-*-*-*---7-------------|
A|-----4-*-*-*---4-*-*-*---7--LET-RING---|
E|-------------------------5-------------|

If I had put the exact timing for every power chord and note I would still be tabbing 
song the same time next year.

Tabbed By: Richard Smerdon 23/12/05

| /  slide up
| \  slide down
| h  hammer-on
| p  pull-off
| ~  vibrato
| +  harmonic
| x  Mute note
===============================================================================
Tap to rate this tab
# A B C D E F G H I J K L M N O P Q R S T U V W X Y Z