Song name
# A B C D E F G H I J K L M N O P Q R S T U V W X Y Z

Hawthorne Heights - Where Can I Stab Myself In The Ears tab

I couldn't find this song tabbed correctly so i did it myself. sorry about the chorus. 
a real high part that i could barely hear not to mention tab out.

Standard down a half step

*=Palm mute
^=Pinch Harmonic


INTRO
Guitar 1
eb---------------|
Bb-------13------|
Gb---16----16--16|
Db-14--14----14--|
Ab---------------|
Eb---------------|

Guitar 2
eb------------------------------------------|
Bb------------------------------------------|
Gb----------------------------------------- |
Db-2---12--10-10--7-----2---12--10-10--55---|
Ab-2---12--10-10--7-----2---12--10-10--55---|
Eb-0---10--8--8---5-----0---10--8--10--33---|

                                       **
"I wish i could have sent..."
Guitar 2
PALM MUTED!!!!!!!!!!!!!!!!!!!!!
eb-------------------------------------------------------------------|
Bb-------------------------------------------------------------------|
Gb-------------------------------------------------------------------|
Db-222222222222-12-12-12-12-10-10-10-10-10-10-10-10-10-10-10-10-7777-|
Ab-222222222222-12-12-12-12-10-10-10-10-10-10-10-10-10-10-10-10-7777-|
Eb-000000000000-10-10-10-10--8--8--8--8--8--8--8--8--8--8--8--8-5555-|


Guitar 1
eb-87-|
Bb----|
Gb----|
Db----|
Ab----|
Eb----|

eb-000000000000222233333333355505550-32--32----|
b--------------------------------------3---3-1-|
Gb---------------------------------------------|
Db---------------------------------------------|
Ab---------------------------------------------|
Eb---------------------------------------------|

BOTH
eb--------------|
Bb--------------|
Gb--------------|
Db-10-12-12-99--|
Ab-10-12-12-99--|
Eb-8--10-10-77--|

Guitar 1
eb----|
Bb----|
Gb----|
Db-2s-|
Ab-2s-|
Eb-0s-|


Guitar 2
Palm then release
eb---------------------------------|
Bb---------------------------------|
Gb---------------------------------|
Db-2222444455557777555577779999-10-|
Ab-2222444455557777555577779999-10-|
Eb-0000222233335555333355557777--8-|

Guitar 1
Eb-----------------333355557777--8|
Bb-----------------555577778888-10|
Gb--------------------------------|
Db--------------------------------|
Ab--------------------------------|
Eb--------------------------------|


"Please hold me tightly..."
Guitar 2
eb-------------------------------------------|
Bb-------------------------------------------|
Gb-------------------------------------------|
Db-10-------12----9-12-2-2-2-2--9-10-12-9-12-|
Ab-10-------12----9-12-2-2-2-2--9-10-12-9-12-|
Eb--8-------10----7-10-0-0-0-0--7--8-10-7-10-|


Guitar 1
Eb--------------------------------|
Bb--------------------------------|
Gb----------------------9-1112-14-|
Db----------------------9-1112-14-|
Ab----------------------7-9-10-12-|
Eb--------------------------------|

"Behind your back..."
Guitar 2
Eb-------------------|
Bb-------------------|
Gb-------------------|
Db-2---2---2---10-12-|
Ab-2---2---2---10-12-|
Eb-0---0---0---8--10-|

Guitar 1
Eb-------------------|
Bb-------------------|
Gb--4-2-2-2-2-2------|
Db-------------------|
Ab-------------------|
Eb-------------------|

ascending high part
Guitar 1
Eb-------|
Bb-5-7-8-|
Gb-------|
Db-------|
Ab-------|
Eb-------|

Guitar 3(quieter)
Eb-5-7-8-|
Bb-------|
Gb-------|
Db-------|
Ab-------|
Eb-------|

"So you're the fire..."
now back to normal
eb------------------------------------------|
Bb------------------------------------------|
Gb----------------------------------------- |
Db-2---12--10-10--7-----2---12--10-10--55---|
Ab-2---12--10-10--7-----2---12--10-10--55---|
Eb-0---10--8--8---5-----0---10--8--10--33---|

Guitar 1
eb---------------|
Bb-------13------|
Gb---16----16--16|
Db-14--14----14--|
Ab---------------|
Eb---------------|

"SO YOU'RE THE FIRE!!!"
Eb-----------------------------|
Bb--------------^3----------^3-|
Gb--------242-24---------242---|
Db---454------------454--------|
Ab-----------------------------|
Eb-----------------------------|

Guitar 2
Eb------------------------|
Bb------------------------|
Gb------------------------|
Db-22---22--------22---22-|
Ab-22---22--------22---22-|
Eb-00---00--------00---00-|

Guitar 3 (quieter)
Eb-----------------------------|
Bb--------------^3----------^3-|
Gb---242--454-45----242--454---|
Db-----------------------------|
Ab-----------------------------|
Eb-----------------------------|

"I WONT FORGET YOU!!!"

Guitar 1
Eb--------------------------------------|
Bb-----131----353-35-8----131-----353-5-|
Gb--------------------------------------|
Db--------------------------------------|
Ab--------------------------------------|
Eb--------------------------------------|

Guitar 2
Eb--------------------------------|
Bb--------------------------------|
Gb--------------------------------|
Db-1010---1010--------1212---1212-|
Ab--8-8----8-8--------1212---1212-|
Eb--8-8----8-8--------1010---1010-|

Guitar 3 (quieter)
Eb--------------------------------------|
Bb------------------^3----------------5-|
Gb-----242----454-45------242-----454---|
Db--------------------------------------|
Ab--------------------------------------|
Eb--------------------------------------|

"THIS IS THE ENDING!!!"
Guitar 1
Eb-----------------------------|
Bb--------------^3----------^3-|
Gb--------242-24---------242---|
Db---454------------454--------|
Ab-----------------------------|
Eb-----------------------------|

Guitar 2
Eb------------------------|
Bb------------------------|
Gb------------------------|
Db-22---22--------22---22-|
Ab-22---22--------22---22-|
Eb-00---00--------00---00-|

Guitar 3 (quieter)
Eb-----------------------------|
Bb--------------^3----------^3-|
Gb---242--454-45----242--454---|
Db-----------------------------|
Ab-----------------------------|
Eb-----------------------------|

Guitar 1
Eb-----------------------------------|
Bb-----------------------------------|
Gb---9111214-9111214-791112-12141617-|
Db---9111214-9111214-791112-12141617-|
Ab---79-1012-79-1012-57-910-10121415-|
Eb-----------------------------------|

Guitar 2
Eb-------------------------------------|
Bb-------------------------------------|
Gb-------------------------------------|
Db-2-2-------2------5------7---------2-|
Ab-2-2-------2------3------7---------2-|
Eb-0-0-------0------3------5---------0-|

Guitar 1
eb---------------|
Bb-------13------|
Gb---16----16--16|
Db-14--14----14--|
Ab---------------|
Eb---------------|
Tap to rate this tab
# A B C D E F G H I J K L M N O P Q R S T U V W X Y Z