Song name
# A B C D E F G H I J K L M N O P Q R S T U V W X Y Z

Hawthorne Heights - Light Sleeper tab

Song by:Hawthorne Heights
Title:Light Sleeper
Album:If Only You Were Lonely
Tuning:Standard


Im sure that this song 99% right,also please rate


Key:
*=Palm Mute
\=Slide up
/=Slide down
H=Hammer
P=Pull Off
~=Let it ring


Riff 1 Guitar1

e|-------------------------------------|
B|5-4----------------------------------|
G|----6-4—-1—-11/13-11—-6—-1-----------|
D|----------------------------4-4—-2-1-|
A|-------------------------------------|
E|-------------------------------------|


Riff 1 Guitar2

e|-----------------------|
B|-----------------------|
G|---9-----9-----9-----9-|
D|-----------------------|   X3
A|--7-----7-----7-----7--|
E|9-----7-----5-----7----|


Riff 2 Guitar1&2

E|-----------------------------------------|
B|-----------------------------------------|
G|6-6-6-6-6-6—-2-2-2-2-2-2—-44-44-22-2-4---|
D|6-6-6-6-6-6—-2-2-2-2-2-2—-44-44-22-2-4---|  X3
A|4-4-4-4-4-4--0-0-0-0-0-0—-22-22-00-0-2---|
E|-----------------------------------------|
    * * * *      * * * *

Riff 3 Guitar1

e|---------------------------|
B|---------------------------|
G|6-6-6-6-6-6-6-6—-4-4-4-4—6-|
D|---------------------------|
A|---------------------------|
E|---------------------------|
* * * * * * * *  * * * * *

Riff 4 Guitar1

e|--------------------------------------------------------------|
B|--------------------------------------------------------------|
G|6-6-6-6--9-9-9-9—-4-4-4-4-4-4-4-4--6-6-6-6-—9-9-9-9—--4-4-4-4-|
D|6-6-6-6--9-9-9-9—-4-4-4-4-4-4-4-4—-6-6-6-6—-9-9-9-9—--4-4-4-4-|
A|4-4-4-4--7-7-7-7—-2-2-2-2-2-2-2-2—-4-4-4-4—-7-7-7-7---2-2-2-2-|
E|--------------------------------------------------------------|

e|-----------|
B|-----------|
G|4-4-4-4—-2-|
D|4-4-4-4—-2-|
A|2-2-2-2—-0-|
E|-----------|


Riff 4 Guitar2

e|-------------------------------------------------------------|
B|-------------------------------------------------------------|
G|6-6-6-6—-9-9-9-9—-4-4-4-4-4-4-4-4—-6-6-6-6—-9-9-9-9--4-4-4-4-|
D|x-x-x-x—-x-x-x-x—-x-x-x-x-x-x-x-x—-x-x-x-x—-x-x-x-x--x-x-x-x-|
A|4-4-4-4-—7-7-7-7—-2-2-2-2-2-2-2-2—-4-4-4-4—-7-7-7-7—-7-7-7-7-|
E|-------------------------------------------------------------|


e|-------------|
B|-------------|
G|4-4-4-4--2---|
D|x-x-x-x—-2---|
A|2-2-2-2—-0---|
E|-------------|



Riff 5 Guitar1

e|----------------------------------|
B|----------------------------------|
G|66-6666—-22-2222--44-4444-22-2222-|
D|66-6666—-22-2222—-44-4444-22-2222-|  X3
A|44-4444—-00-0000—-22-2222-00-0000-|
E|----------------------------------|
  ** ****  ** ****  ** **** ** ****


Riff 5 Guitar2

e|---------------------|
B|---------------------|
G|5—-14—-11—-5—-14—-11-|
D|5—--x-—-x—-5—--x—--x-|
A|3—-12---9--3—-12—--9-|
E|---------------------|


Riff 6 Guitar1
                                                           X2
e|------------------------------------------------------------|
B|------------------------------------------------------------|
G|6-6-6-6-6-6-6-6—-2-2-2-2-2-2-2-2--4-4-4-4-4-4-4-4-4-4-4-4-4-|
D|6-6-6-6-6-6-6-6—-2-2-2-2-2-2-2-2—-4-4-4-4-4-4-4-4-4-4-4-4-4-|
A|4-4-4-4-4-4-4-4-—0-0-0-0-0-0-0-0—-2-2-2-2-2-2-2-2-2-2-2-2-2-|
E|------------------------------------------------------------|
  * * * * * * * *  * * * * * * * *  * * * * * * * * * * * * *


Riff 6 Guitar2

e|4-4-----4-4-----5-5-----5-5----4—4—-7—7--|
B|---5-5-----5-5-----5-5-----5-5—-5-5—-5—5-|
G|-----------------------------------------|
D|-----------------------------------------|  X2
A|-----------------------------------------|
E|-----------------------------------------|


Riff 7 Guitar2

e|---------------------------|
B|-------------------------8-|
G|6-6-6-6-6-6-6-6-6-6-6-6—-x-|
D|x-x-x-x-x-x-x-x-x-x-x-x—-5-|
A|4-4-4-4-4-4-4-4-4-4-4-4----|
E|---------------------------|


Riff 8 Guitar1

e|--------------------------------------------------------------|
B|--------------------------------------------------------------|
G|6-6-6-6--9-9-9-9—-4-4-4-4-4-4-4-4--6-6-6-6-—9-9-9-9—--4-4-4-4-|
D|6-6-6-6--9-9-9-9—-4-4-4-4-4-4-4-4—-6-6-6-6—-9-9-9-9—--4-4-4-4-|
A|4-4-4-4--7-7-7-7—-2-2-2-2-2-2-2-2—-4-4-4-4—-7-7-7-7---2-2-2-2-|
E|--------------------------------------------------------------|

e|-----------------------------------------------------------|
B|-----------------------------------------------------------|
G|4-4-4-4—-6-—6—-9\11—-4-4-4-4-4-4-4-4—-6—-4-4-4-4-4-4-4-4--2|
D|4-4-4-4—-6—-x—-x\x---4-4-4-4-4-4-4-4—-6—-4-4-4-4-4-4-4-4--2|
A|2-2-2-2—-4—-4—-7\9---2-2-2-2-2-2-2-2—-4—-2-2-2-2-2-2-2-2--0|
E|-----------------------------------------------------------|


Riff 8 Guitar2

e|----------------------------------|
B|----------------------------------|
G|13-13-13-13-13-13-13\12-----14/16-|
D|-x-—x—-x—-x—-x—-x—-x\-x------x/-x-|
A|11-11-11-11-11-11-11\14-----12/14-|
E|----------------------------------|


Riff 9 Guitar1

e|--------------------|
B|--------------------|
G|4—-6~-2~--4—-6~--66-|
D|4—-6~-2~--4—-6~--66-|
A|2—-4~-0~--2—-4~--44-|
E|--------------------|
                   **

Riff 9 Guitar2

e|4-2---2-0-------|
B|---2------------|
G|----4-----4—-66-|
D|-------------66-|
A|-------------44-|
E|----------------|
               **


Riff 10 Guitar1

e|---------------------------------------------------------------|
B|---------------------------------------------------------------|
G|6-6-6-6-6-6-6-6—-9-9-9-9-9-9-9-9—-6-6-6-6-6-6-6-6-—9-9-9-9-9-9-|
D|6-6-6-6-6-6-6-6—-9-9-9-9-9-9-9-9—-6-6-6-6-6-6-6-6—-9-9-9-9-9-9-|
A|4-4-4-4-4-4-4-4—-7-7-7-7-7-7-7-7—-4-4-4-4-4-4-4-4—-7-7-7-7-7-7-|
E|---------------------------------------------------------------|


e|-------|
B|-------|
G|9-9-9--|
D|9-9-9--|
A|7-7-7--|
E|-------|


Riff 10 Guitar2


e|----------------------|
B|----------------------|
G|13-11--6--4—-11--9—-4-|
D|-x—-x--x--x---x—-x—-x-|  X3
A|11—-9--4--2---9—-7-—2-|
E|----------------------|


Riff 11 Guitar1

e|---------------------------------|
B|---------------------------------|
G|66666666666666—-4444444444444-—4-|
D|66666666666666--4444444444444—-4-|
A|44444444444444--2222222222222—-2-|
E|---------------------------------|


Riff 11 Guitar2

e|----------------------------------------|
B|----------------------------------------|
G|----------------------------------------|
D|999999999999999-—8888888888888—-4444-—4-|
A|xxxxxxxxxxxxxxx—-xxxxxxxxxxxxx-—xxxx—-4-|
E|777777777777777—-6666666666666—-2222—-2-|

Riff 12 Guitar1


e|--------------------------------------------------------------|
B|--------------------------------------------------------------|
G|6-6-6-6--9-9-9-9—-4-4-4-4-4-4-4-4--6-6-6-6-—9-9-9-9—--4-4-4-4-|
D|6-6-6-6--9-9-9-9—-4-4-4-4-4-4-4-4—-6-6-6-6—-9-9-9-9—--4-4-4-4-|
A|4-4-4-4--7-7-7-7—-2-2-2-2-2-2-2-2—-4-4-4-4—-7-7-7-7---2-2-2-2-|
E|--------------------------------------------------------------|


e|------------|
B|------------|
G|4-4-4-4—-6--|
D|4-4-4-4—-6--|
A|2-2-2-2—-4--|
E|------------|


Riff 12 Guitar2

e|-------------------------------------------------------------|
B|-------------------------------------------------------------|
G|6-6-6-6—-9-9-9-9—-4-4-4-4-4-4-4-4—-6-6-6-6—-9-9-9-9--4-4-4-4-|
D|x-x-x-x—-x-x-x-x—-x-x-x-x-x-x-x-x—-x-x-x-x—-x-x-x-x--x-x-x-x-|
A|4-4-4-4-—7-7-7-7—-2-2-2-2-2-2-2-2—-4-4-4-4—-7-7-7-7—-7-7-7-7-|
E|-------------------------------------------------------------|

e|-------------|
B|-------------|
G|4-4-4-4--6---|
D|x-x-x-x—-6---|
A|2-2-2-2—-4---|
E|-------------|

Riff 13 Guitar2

e|--------------------------|
B|--------------------------|
G|---9-----9-----9-----9—---|
D|--------------------------|  X2
A|--7-----7-----7-----7-----|
E|9-----7-----5-----7-------|

Riff 13 Guitar1
E|--|
B|--|
G|6-|
D|6-|
A|4-|
E|--|
Tap to rate this tab
# A B C D E F G H I J K L M N O P Q R S T U V W X Y Z