Song name
# A B C D E F G H I J K L M N O P Q R S T U V W X Y Z

Hawthorne Heights - Where Do I Stab Myself In The Ears tab

This is a big Gino tab


Intro: Guitar one
e--------------|
b--------------|
g-----15----16-|
d--13----13----|   x1
a--------------|
d--------------|

Guitar one
e----------------------|
b----------------------|
g----15----15-----16---|
d-13----13-----13------|  x11
a----------------------|
d----------------------|

Intro: Guitar two

e---------|
b---------|
g---------|
d-1--6--4-|
a-1--4--2-|  x1
d-1-------|

Guitar 2
e------------|
b------------|
g------------|
d-4--1--6--2-|  x1
a-4--1--4--2-|
d-4--1-------|

Both Guitars:

e---------|
b---------|
g---------|
d---------|
a-4-4-----|
d-4-4-----|
  . .

Verse:
e----------------------------------|
b----------------------------------|
g----------------------------------|
d-1-----6-----4-------3-------4--1-|   Both Guitars
a-1-(16)4-(x4)2-(x16)-1-(x4)--4--1-|
d-1-----------------------4--1-----|
  .     .    .     .     .  .

Pre chorus:

e------|
b------|
g------|
d-4--6-|  Figure out rythem ...Both Guitars
a-2--4-|
d------|

Chorus:

e-------------------------------|
b-------------------------------|
g-------------------------------|
d-1--1--1--1--6----4----3---4-1-|  Guitar one
a-1--1--1--1--4----2----1---4-1-|
d-1--1--1--1----------------4-1-|

Guitar two : ( havent figured out lead)


Breakdown: Guitar two (lead)
e--------------------------------------------------------|
b--------------------------------------------------------|
g--------------------------5*-----------------------5----|  x8
d-----3-5-3------3-5-3-3-5----------3-5-3-----3-5-3------|
a--------------------------------------------------------|
d--0-0-------0-0----------------0-0--------0-0-----------|

End:

e---------|
b---------|
g---------|
d-1--4--6-|
a-1--4--6-|
d-1--4--6-|         Both Guitars

e--------|
b--------|
g--------|
d---1~---|
a---1~---|
d---1~---|

Hey gimme an email if u have any questions dricciR@peoplepc.com
Tap to rate this tab
# A B C D E F G H I J K L M N O P Q R S T U V W X Y Z