Song name
# A B C D E F G H I J K L M N O P Q R S T U V W X Y Z

Hawthorne Heights - Language Lessons Five Words Or Less tab

Hawthorne Heights
Language Lessons (Five Words or Less)
If Only You Were Lonely

Intro (0:00-0:10)
e|---------------------------------------------------|
B|---------------------------------------------------|
G|---------------------------------------------------|
D|--7-(x8)--2-(x8)--3-(x16)--7-(x8)--5-(x8)--3-(x16)-|
A|--5-------0-------1--------5-------3-------1-------|
E|---------------------------------------------------|

(0:11-0:22)
e|------------------------------------------------|
B|------------------------------------------------|
G|--5--7-7-7-7-7-7-7-7---3-3-3-3-3-3-3-3---5---7--|
D|--5--7-7-7-7-7-7-7-7---3-3-3-3-3-3-3-3---5---7--|
A|--3--5-5-5-5-5-5-5-5---1-1-1-1-1-1-1-1---3---5--|
E|------------------------------------------------|

Verse 1 (0:23-0:45)
e|-----------------------------------------------------|
B|-----------------------------------------------------|
G|-----------------------------------------------------| 
D|--7-(x8)-2-(x8)-3-(x16)-7-(x8)-5-(x8)-3-(x16)--------| 
A|--5------0------1-------5------3------1--------------|
E|-----------------------------------------------------|{x2}
    .      .      .       .      .      .

Other Part (0:33-0:45)
e|-----------------------------------------------------|
B|---10----10-10h11-12-12s-6----6----------------------|
G|-----------------------------------------------------| 
D|-----------------------------------------------------| 
A|-----------------------------------------------------|
E|-----------------------------------------------------|{x2}

Chorus (0:49-1:11)
e|------------------------------------------|          
B|------------------------------------------|     
G|--5--7-7-7-7-7-7-7-7---3-3-3-3-3-3-3-3----|
D|--5--7-7-7-7-7-7-7-7---3-3-3-3-3-3-3-3----|
A|--3--5-5-5-5-5-5-5-5---1-1-1-1-1-1-1-1----| 
E|------------------------------------------|

e|------------------------------------------|      
B|------------------------------------------|
G|--------------------3-3-3-3-3-3-3-3-------|  
D|--3-3-3-3-3-3-3-3---3-3-3-3-3-3-3-3-------|   
A|--3-3-3-3-3-3-3-3---1-1-1-1-1-1-1-1-------|  
E|--1-1-1-1-1-1-1-1-------------------------|

Fill-In
e|-----------------------------------------------------|
B|---5-6-8-6-5-6-8--------8-10-11-10-8-10-11---13~--15p|
G|-----------------------------------------------------| 
D|-----------------------------------------------------| 
A|-----------------------------------------------------|
E|-----------------------------------------------------|

e|--------------------------------------------------------|
B|---5-6-8-6-5-6-8--------8-10-8-10-8-10-8---13~----15s--5| Play the last 5
G|--------------------------------------------------------| softly
D|--------------------------------------------------------|
A|--------------------------------------------------------|
E|--------------------------------------------------------|

Verse 2 (1:12-1:35)
e|-----------------------------------------------------|
B|-----------------------------------------------------|
G|----10~-----------------------------10~--------------| 
D|-----------------------------------------------------| 
A|-----------------------------------------------------|
E|-----------------------------------------------------|

Other Part
e|-----------------------------------------------------|
B|---10----10-10h11-12-12s-6----6----------------------|
G|-----------------------------------------------------| 
D|-----------------------------------------------------| 
A|-----------------------------------------------------|
E|-----------------------------------------------------|{x2}

Chorus (1:40-2:01)
e|------------------------------------------|          
B|------------------------------------------|     
G|--5--7-7-7-7-7-7-7-7---3-3-3-3-3-3-3-3----|
D|--5--7-7-7-7-7-7-7-7---3-3-3-3-3-3-3-3----|
A|--3--5-5-5-5-5-5-5-5---1-1-1-1-1-1-1-1----| 
E|------------------------------------------|

e|------------------------------------------|      
B|------------------------------------------|
G|--------------------3-3-3-3-3-3-3-3-------|  
D|--3-3-3-3-3-3-3-3---3-3-3-3-3-3-3-3-------|   
A|--3-3-3-3-3-3-3-3---1-1-1-1-1-1-1-1-------|  
E|--1-1-1-1-1-1-1-1-------------------------|

Fill-In
e|-----------------------------------------------------|
B|---5-6-8-6-5-6-8--------8-10-11-10-8-10-11---13~--15p|
G|-----------------------------------------------------| 
D|-----------------------------------------------------| 
A|-----------------------------------------------------|
E|-----------------------------------------------------|

e|--------------------------------------------------------|
B|---5-6-8-6-5-6-8--------8-10-8-10-8-10-8---13~----15s--5| Play last 5 
G|--------------------------------------------------------| softly again
D|--------------------------------------------------------|
A|--------------------------------------------------------|
E|--------------------------------------------------------|

Bridge (2:02-2:23)
e|----------------------|           
B|----------------------|   
G|------5-----5-----5---|  
D|----7-----7-----7-----| 
A|--5-----0-----5-------|
E|----------------------|{x4}

Come in with...
e|------------------------------------|          
B|------------------------------------|   
G|-------------------3-3-3-3-3-3-3-3--|  
D|--3-3-3-3-3-3-3-3--3-3-3-3-3-3-3-3--| 
A|--3-3-3-3-3-3-3-3--1-1-1-1-1-1-1-1--|
E|--1-1-1-1-1-1-1-1-------------------|


Chorus (2:35-2:57)
e|------------------------------------------|          
B|------------------------------------------|     
G|--5--7-7-7-7-7-7-7-7---3-3-3-3-3-3-3-3----|
D|--5--7-7-7-7-7-7-7-7---3-3-3-3-3-3-3-3----|
A|--3--5-5-5-5-5-5-5-5---1-1-1-1-1-1-1-1----| 
E|------------------------------------------|

e|------------------------------------------|      
B|------------------------------------------|
G|--------------------3-3-3-3-3-3-3-3-------|  
D|--3-3-3-3-3-3-3-3---3-3-3-3-3-3-3-3-------|   
A|--3-3-3-3-3-3-3-3---1-1-1-1-1-1-1-1-------|  
E|--1-1-1-1-1-1-1-1-------------------------|

Fill-In
e|-----------------------------------------------------|
B|---5-6-8-6-5-6-8--------8-10-11-10-8-10-11---13~--15p|
G|-----------------------------------------------------| 
D|-----------------------------------------------------| 
A|-----------------------------------------------------|
E|-----------------------------------------------------|

e|--------------------------------------------------------|
B|--------------------------------------------------------|
G|----s18-18-18-18---5-5-5-5-5-5/---7-7-7-7-7-7-7---------| Play this whole
D|--------------------------------------------------------| part soft in
A|--------------------------------------------------------| the background
E|--------------------------------------------------------|

Little Solo at the end (2:58-3:21)
e|-----------------------------------------------------|
B|-----------------------------------------------------|
G|---9-9-9-9-9-9-5-5-10-10-10-10-10-10-7-7-12-12-12-12-|
D|-----------------------------------------------------| 
A|-----------------------------------------------------|
E|-----------------------------------------------------|

Continued...
e|-----------------------------------------------------|
B|-----------------------------------------------------|
G|---14-14-14-14-14-14-17-17-17-17-17-17-17------------|
D|-----------------------------------------------------| 
A|-----------------------------------------------------|
E|-----------------------------------------------------|

End with...
e|-----------------------------------------------------|
B|-----------------------------------------------------|
G|-------14~------------------------10~----------------|
D|-----------------------------------------------------| 
A|-----------------------------------------------------|
E|-----------------------------------------------------|
Tap to rate this tab
# A B C D E F G H I J K L M N O P Q R S T U V W X Y Z