Song name
# A B C D E F G H I J K L M N O P Q R S T U V W X Y Z

Hawthorne Heights - Pens And Needles tab

----------------------------------------------------------------------------
                   PENS AND NEEDLES ~ HAWTHORNE HEIGHTS
----------------------------------------------------------------------------
Tabbed by: Imon (crzyguitarman79)
Email: musicismyweapon95@verizon.net

Tuning: standard

VERSE
gtr I
e|-------------------------------------------------------------------------|
B|------------4-4/5--------4-4/5-------------------------------------------|
G|-------6-----------------------------------------4-----4-----------------|
D|-------6------------2--------------5-----5-------4-----4-----------------|
A|-------4------------2--------------5-----5-------2-----2-----------------|
E|--------------------0--------------3-----3-------------------------------|

gtr II
e|-------------------------------------------------------------------------|
B|-------------------------7-7/9-------------------------------------------|
G|-----------------------------------9-----9-------8-----8-----------------|
D|-------6------------2--------------x-----x-------x-----x-----------------|
A|-------6------------2--------------7-----7-------6-----6-----------------|
E|-------4------------0----------------------------------------------------|

gtr I
e|-------------------------------------------------------------------------|
B|------------4-4/5--------4-4/5-------------------------------------------|
G|-------6-----------------------------------------------4-----------------|
D|-------6------------2--------------5-----5-------------4-----------------|
A|-------4------------2--------------5-----5-------------2-----------------|
E|--------------------0--------------3-----3-------------------------------|

gtr II
e|-------------------------------------------------------------------------|
B|-------------------------7-7/9-------------------------------------------|
G|-----------------------------------9-----9-------------8-----------------|
D|-------6------------2--------------x-----x-------------x-----------------|
A|-------6------------2--------------7-----7-------------6-----------------|
E|-------4------------0----------------------------------------------------|

VERSE x4
gtr I
e|-------------------7-7----------------7-7--------------------------------|
B|-------5----4------------4-4---5-5----------4-4---5-5--------------------|
G|-------6----4------------------------------------------------------------|
D|-------------------------------------------------------------------------|
A|-------------------------------------------------------------------------|
E|-------------------------------------------------------------------------|
               (palm mute) * *   * *    * *   * *   * *

PRE-CHORUS x2
gtr I
e|-----------------7-7-----------7-7---------------------------------------|
B|------4-4---5-5------4-4--5-5------4-4---5-5-----------------------------|
G|-------------------------------------------------------------------------|
D|-------------------------------------------------------------------------|
A|-------------------------------------------------------------------------|
E|-------------------------------------------------------------------------|

gtr II
e|----------------------|
B|----------------------|
G|-----6~~~~------------|
D|-----6~~~~------------|
A|-----4~~~~------------|
E|----------------------|

CHORUS
gtr I
e|-------------------------------------------------------------------------|
B|------------4-4/5--------4-4/5-------------------------------------------|
G|-------6-----------------------------------------4-----4-----------------|
D|-------6------------2--------------5-----5-------4-----4-----------------|
A|-------4------------2--------------5-----5-------2-----2-----------------|
E|--------------------0--------------3-----3-------------------------------|

gtr II
e|-------------------------------------------------------------------------|
B|-------------------------7-7/9-------------------------------------------|
G|-----------------------------------9-----9-------8-----8-----------------|
D|-------6------------2--------------x-----x-------x-----x-----------------|
A|-------6------------2--------------7-----7-------6-----6-----------------|
E|-------4------------0----------------------------------------------------|

gtr I
e|-------------------------------------------------------------------------|
B|------------4-4/5--------4-4/5-------------------------------------------|
G|-------6-----------------------------------------------4-----------------|
D|-------6------------2--------------5-----5-------------4-----------------|
A|-------4------------2--------------5-----5-------------2-----------------|
E|--------------------0--------------3-----3-------------------------------|

gtr II
e|-------------------------------------------------------------------------|
B|-------------------------7-7/9-------------------------------------------|
G|-----------------------------------9-----9-------------8-----------------|
D|-------6------------2--------------x-----x-------------x-----------------|
A|-------6------------2--------------7-----7-------------6-----------------|
E|-------4------------0----------------------------------------------------|

gtr I
e|-------------------------------------------------------------------------|
B|------------4-4/5--------------------------------------------------------|
G|-------6-----------------------------------------4-----4-----------------|
D|-------6------------2--------------5-----5-------4-----4-----------------|
A|-------4------------2--------------5-----5-------2-----2-----------------|
E|--------------------0--------------3-----3-------------------------------|

gtr II
e|-------------------------------------------------------------------------|
B|-------------------------------------------------------------------------|
G|-----------------------------------9-----9-------8-----8-----------------|
D|-------6------------2--------------x-----x-------x-----x-----------------|
A|-------6------------2--------------7-----7-------6-----6-----------------|
E|-------4------------0----------------------------------------------------|

VERSE 2 - Play out just the chords with a palm mute.

PRE-CHORUS - Play once here.

CHORUS - Repeat
 
BRIDGE/SOLO-thingy
gtr I
e|--------------------------------------|  x3 while gtr 2 plays bottom riff.
B|--4--5-5----4--5--4h5p4p0-------------|
G|--------------------------------------|
D|--------------------------------------|
A|--------------------------------------|
E|--------------------------------------|

gtr II x1
e|-------------------------------------------------------------------------|
B|-------------------------------------------------------------------------|
G|---6----4--6----4--5----5--4---------------------------------------------|
D|---6----4--6----4--5----5--4---------------------------------------------|
A|---4----2--4----2--3----3--2---------------------------------------------|
E|-------------------------------------------------------------------------|

gtr I
e|----------------------------------------|
B|--2-2-2-2-2/4-4-4-4/5-5-5-5-5-----------|
G|----------------------------------------|
D|----------------------------------------|
A|----------------------------------------|
E|----------------------------------------|

BREAKDOWN/SCREAMING
gtr I
e|--------------------------------------| X3 While gtr 2 plays...
B|--4--5-5----4--5--4h5p4p0-------------|
G|--------------------------------------|
D|--------------------------------------|
A|--------------------------------------|
E|--------------------------------------|

gtr II
e|-------------------------------------------------------------------------|
B|-------------------------------------------------------------------------|
G|-6---------------4--6----------------4-----------------------4~~~~-------|
D|-6--222-222-222--4--6--222-222-222---4--5--222-222-222---5---4~~~~-------|
A|-4--222-222-222--2--4--222-222-222---2--5--222-222-222---5---2~~~~-------|
E|----000-000-000--------000-000-000------3--000-000-000---3---------------|
      *** *** ***        *** *** ***         *** *** ***

gtr I
e|----------------------------------------|
B|--2-2-2-2-2/4-4-4-4/5-5-5-5-5-----------|
G|----------------------------------------|
D|----------------------------------------|
A|----------------------------------------|
E|----------------------------------------|

 CHORUS - REPEAT
                      HAVE FUN!!!!
Tap to rate this tab
# A B C D E F G H I J K L M N O P Q R S T U V W X Y Z