Guitaretab - guitar tabs
Song name
# A B C D E F G H I J K L M N O P Q R S T U V W X Y Z

Hawthorne Heights - Screenwriting An Apology tab

Just to let you know before you send me messed up comments and messages I don't know
how to  label the song structure (Chorus etc) so I just put intro and ending. I also
did no research on this song. I simply sat down and listened to the song like a hundred
times )= and started figuring it out. I know there is a couple mistakes but I did my
best. You don't have to use it and if you are going to complain then you can go fornicate
your self with a large stick. Also if you just have to send me an email then send it to
guitarfate2@yahoo.com. P.S. I've only been playing for eleven months so consider that
before hand.


IntroRepeat 4x
e------------------------------------------------------------|
b------------------------------------------------------------|
g---8--8--8--84--4--4--4-------------------------------------|
d----8--8--8--84--4--4--4------------------------------------|
a-----6--6--6--62--2--2--2-----------------------------------|
e------------------------------------------------------------|

VerseRepeat 4x
e-----------------------------------------------------------|
b-----------------------------------------------------------|
g---88888-88888-8888-44444-44444-4444-----------------------|
d---88888-88888-8888-44444-44444-4444-----------------------|
a---66666-66666-6666-22222-22222-2222-----------------------|
e-----------------------------------------------------------|

    2x
e--------------------|
b--------------------|
g---8/4-446----------|
d---8/4-446----------|
a---6/2-224----------|
e--------------------|

    2x
e-----------------------------------------------------------|
b-----------------------------------------------------------|
g---8-88888-8-88888-6-66666-4-44444-6-66666-4-44444-4-6/8---|
d---8-88888-8-88888-6-66666-4-44444-6-66666-4-44444-4-6/8---|
a---6-66666-6-66666-4-44444-2-22222-4-44444-2-22222-2-4/6---|
e-----------------------------------------------------------|

    2x
e--------------------|
b--------------------|
g---8/4-446----------|
d---8/4-446----------|
a---6/2-224----------|
e--------------------|
[ Tab from: http://www.guitaretab.com/h/hawthorne-heights/70999.html ]
    1x
e-------------------------------------------|
b-------------------------------------------|
g-8888888844446666888888884444666-----------|
d-8888888844446666888888884444666-----------|
a-6666666622224444666666662222444-----------|
e-------------------------------------------|

    1x
e-----------------------------------------------------------|
b-----------------------------------------------------------|
g---8-88888-8-88888-6-66666-4-44444-6-66666-4-44444-4-6/8---|
d---8-88888-8-88888-6-66666-4-44444-6-66666-4-44444-4-6/8---|
a---6-66666-6-66666-4-44444-2-22222-4-44444-2-22222-2-4/6---|
e-----------------------------------------------------------|

    1x
e-----------------------------------------------------------|
b-----------------------------------------------------------|
g---8-88888-8-88888-6-66666-4-44444-6-66666-4-444~----------|
d---8-88888-8-88888-6-66666-4-44444-6-66666-4-444~----------|
a---6-66666-6-66666-4-44444-2-22222-4-44444-2-222~----------|
e-----------------------------------------------------------|

    4x
e--------------------|
b--------------------|
g---8/4-446----------|
d---8/4-446----------|
a---6/2-224----------|
e--------------------|

    4x
e-----------------------------------------------------------|
b-----------------------------------------------------------|
g---88888-88888-8888-44444-44444-4444-----------------------|
d---88888-88888-8888-44444-44444-4444-----------------------|
a---66666-66666-6666-22222-22222-2222-----------------------|
e-----------------------------------------------------------|

    1x
e--------------------|
b--------------------|
g---8/4-446----------|
d---8/4-446----------|
a---6/2-224----------|
e--------------------|

    3x
e-------------------------------------------|
b-------------------------------------------|
g---8888888844446666888888884444666---------|
d---8888888844446666888888884444666---------|
a---6666666622224444666666662222444---------|
e-------------------------------------------|

ending
e-------------------|
b-------------------|
g---8-8-8-8-8~------|
d---8-8-8-8-8~------|
a---6-6-6-6-6~------|
e-------------------|
Related for Screenwriting An Apology tab
Advertisement will be closed in 10 seconds