Song name
# A B C D E F G H I J K L M N O P Q R S T U V W X Y Z

Hawthorne Heights - Such A Light Sleeper tab

ive looked at the other tabs for this song and
they are alittle off so im gonna do it my way
so here it goes hope you enjoy

hawthorne heights
light sleeper
standard tuning
intermidiate

this song is awsome

intro rythem guitar
---0--------0---------------|
----------------------------|
------9--9------------------|    repeat
--6--7--9--7----------------|
-4--9--7--5-----------------|
----------------------------|
intro lead guitar
g-98-6-4-1------------------

verse 1
--------------------------|
--------------------------|
-6-6----------------------|
-6-67-79-97---------------|    repeat
-4-47-79-97---------------|
----5-57-75---------------|
............

pre chorus
-------------------------|
-------------------------|
-6-9-11------------------|
-6-9-11------------------|
-4-7-9-------------------|
-------------------------|
.........

chorus
-------------------------|
-------------------------|
-6-----------------------|  repeat
-6-7-9-9-----------------|
-4-7-9-9-----------------|
---5-7-7-----------------|

verse 2
--------------------------|
-6------------------------|
-6-7-9-7------------------| repeat
-4-7-9-7------------------|
---5-7-5------------------|
...........

pre chorus
---------------------------|
---------------------------|
-6-9-11--------------------|
-6-9-11--------------------|
-4-7-9---------------------|
---------------------------|

chorus
------------------------------|
------------------------------|
-6----------------------------|
-6-7-9-9----------------------| repeat
-4-7-9-9----------------------|
---5-7-7----------------------|

outro
------------------------------|
------------------------------|
-6-4--------------------------|  repaet
-6-4--------------------------|
-4-2--------------------------|
------------------------------|

outro 2
-------------------------------|
-------------------------------|
-2-4-6-------------------------|
-2-4-6-------------------------|  repeat couple of times
-0-2-4-------------------------|
-------------------------------|

pre chorus
--------------------------------|
--------------------------------|
-4------------------------------|
-4-7-2--------------------------|
-2-7-2--------------------------|
---5-0--------------------------|
........

chorus
-------------------------|
-------------------------|
-6-----------------------|  repeat 4 times
-6-7-9-9-----------------|
-4-7-9-9-----------------|
---5-7-7-----------------|

ending outro
---0--------0---------------|
----------------------------|
------9--9------------------|    repeat
--6--7--9--7----------------|
-4--9--7--5-----------------|
----------------------------|
intro lead guitar
g-98-6-4-1------------------
Tap to rate this tab
# A B C D E F G H I J K L M N O P Q R S T U V W X Y Z