Song name
# A B C D E F G H I J K L M N O P Q R S T U V W X Y Z

Hawthorne Heights - Sandpaper And Silk Bridge tab

Sandpaper and Silk (bridge)
Hawthorne Heights

Tuned half step down? maybe...

Bridge

guitar 1

1:46
e|--4------------------444--4---------0------|
B|--5--4h5p4-0-4---5//-555--5-4h5p4-0--0-----|
G|-----------------4//------------------2----|
D|---------------------------------------2---|
A|-4-4-----------0---------4--------------0--|
D|-----------------------------------------x-|

1:58
e|---------------------------------------------0------|
B|----5-4-2--5-4-2----2-4---5-0---5-4-2--5-4-0--0-----|
G|-------------------4-----4---------------------2----|
D|---6---------------------------6----------------2---|
A|-4--------4------0------0----4--------4----------0--|
D|--------------------------------------------------x-|

seems about right
Tap to rate this tab
# A B C D E F G H I J K L M N O P Q R S T U V W X Y Z