Guitaretab - guitar tabs
Song name
# A B C D E F G H I J K L M N O P Q R S T U V W X Y Z

Hawthorne Heights - The Transition Live Acoustic tab

Song: The Transitions (Live, Acoustic On Q101)
Artis: Hawthorne Heights
Album: The Silence In Black And White (Re-Issue)

*=Palm Mute
Intro
0:0-0:27
e|-------------|---------------------------------------------------------|
B|-------------|---------------------------------------------------------|
G|-------------|----6-6--6-6-6--6-6-6-xxx-2-2--2-2-2--2-2-2-xxx----------|
D|-------------|-x1-6-6--6-6-6--6-6-6-xxx-2-2--2-2-2--2-2-2-xxx-x4-------|
A|-------------|----4-4--4-4-4--4-4-4-xxx-0-0--0-0-0--0-0-0-xxx----------|
E|-5-4-0-7-5-0-|---------------------------------------------------------|

Verse 1
0:28- 0:40
e|------------------|
B|------------------|
G|-6-6-----2-2------|
D|-6-6-x16-2-2-x16--| x2 Gradually Release Palm Mute On The Second Time
A|-4-4-----0-0------| 
E|------------------|
     *       * 
Verse 1 Cont.
0:41-0:50
e|------------------------------------------|
B|------------------------------------------|
G|----6--6-6--6--6-6--6--6-6----------------|
D|----6--6-6--6--6-6--6--6-6----------------| Do An Up Down Strumming Pattern For This
A|----4--4-4--4--4-4--4--4-4----------------|
E|------------------------------------------|
verse 1 cont.                        
0:50-0:53
e|------------------------|
B|------------------------|
G|-2--2-2--2--2-2--2--2-2-|
D|-2--2-2--2--2-2--2--2-2-|
A|-0--0-0--0--0-0--0--0-0-|
E|------------------------|

Chorus
0:54-0:56
e|--------------------------|
B|--------------------------|
G|--------------------------|
D|-2-2--2-2-2--2-2-2--------|
A|-2-2--2-2-2--2-2-2--------|
E|-0-0--0-0-0--0-0-0--------|

0:57-0:59
e|------------------------|
B|------------------------|
G|-2-2--2-2-2--2-2-2------|
D|-2-2--2-2-2--2-2-2------|
A|-0-0--0-0-0--0-0-0------|
E|------------------------|

1:00-1:04
e|------------------------|
B|------------------------|
G|-6-xx-4-xx-2~-----------|
D|-6-xx-4-xx-2~-----------|
A|-4-xx-2-xx-0~-----------|
E|------------------------|

1:05-:1:08
e|--------------------------|
B|--------------------------|
G|--------------------------|
D|-2-2--2-2-2--2-2-2--------|
A|-2-2--2-2-2--2-2-2--------|
E|-0-0--0-0-0--0-0-0--------|

1:09-1:12
e|------------------------|
B|------------------------|
G|-2--2-2--2--2-2--2--2-2-|
D|-2--2-2--2--2-2--2--2-2-|
A|-0--0-0--0--0-0--0--0-0-|
E|------------------------|

1:13-1:16
e|------------------------|
B|------------------------|
G|-6-xx-4-xx-2~-----------|
D|-6-xx-4-xx-2~-----------|
A|-4-xx-2-xx-0~-----------|
E|------------------------|

Bridge
1:17-1:31
e|-------------7-0-----------------7--|
B|-----4-0-------------4-0-----5-0----|
G|-2-2-----2-2-----2-2-----2-2--------|
D|-2-2-----2-2-----2-2-----2-2--------| x2
A|-0-0-----0-0-----0-0-----0-0--------|
E|------------------------------------|

then
1:32-1:37
e|-----7-|
B|-5-0---|
G|-------|
D|-------| x7
A|-------|
E|-------|

1:38-1:56
e|------------------------|
B|------------------------|
G|-2-2--2-2-2--2-2-2------|
D|-2-2--2-2-2--2-2-2------| Figure Out Strumming Pattern
A|-0-0--0-0-0--0-0-0------| Repeat Until Next Part
E|------------------------|
[ Tab from: http://www.guitaretab.com/h/hawthorne-heights/84460.html ]
Chorus
1:57-2:00
e|--------------------------|
B|--------------------------|
G|--------------------------|
D|-2-2--2-2-2--2-2-2--------|
A|-2-2--2-2-2--2-2-2--------|
E|-0-0--0-0-0--0-0-0--------|

2:01-2:03
e|------------------------|
B|------------------------|
G|-2--2-2--2--2-2--2--2-2-|
D|-2--2-2--2--2-2--2--2-2-|
A|-0--0-0--0--0-0--0--0-0-|
E|------------------------|

2:04-2:09
e|------------------------|
B|------------------------|
G|-6-xx-4-xx-2~-----------|
D|-6-xx-4-xx-2~-----------|
A|-4-xx-2-xx-0~-----------|
E|------------------------|

2:10-2:13
e|--------------------------|
B|--------------------------|
G|--------------------------|
D|-2-2--2-2-2--2-2-2--------|
A|-2-2--2-2-2--2-2-2--------|
E|-0-0--0-0-0--0-0-0--------|

2:14-2:17
e|------------------------|
B|------------------------|
G|-2--2-2--2--2-2--2--2-2-|
D|-2--2-2--2--2-2--2--2-2-|
A|-0--0-0--0--0-0--0--0-0-|
E|------------------------|

2:18-2:21
e|------------------------|
B|------------------------|
G|-6-xx-4-xx-2~-----------|
D|-6-xx-4-xx-2~-----------|
A|-4-xx-2-xx-0~-----------|
E|------------------------|

Verse
2:22-2:35
e|-------------7-0-----------------7--|
B|-----4-0-------------4-0-----5-0----|
G|-2-2-----2-2-----2-2-----2-2--------|
D|-2-2-----2-2-----2-2-----2-2--------| x2
A|-0-0-----0-0-----0-0-----0-0--------|
E|------------------------------------|

2:36-3:01
e|--------|
B|--------|
G|--------| Keep Strumming This
D|--2-----| in about the last 5 seconds start strumming alot harder
A|--2-----|
E|--0-----|

3:02-3:08
e|-----------------------------------|
B|-----------------------------------|
G|-2-2-x-2-2-2-2-2-2-xx--------------|
D|-2-2-x-2-2-2-2-2-2-xx--------------| x2
A|-0-0-x-0-0-0-0-0-0-xx--------------|
E|-----------------------------------|

Bridge 2
(Shine On)
3:09-3:14
e|--------------------------|
B|--------------------------|
G|--------------------------|
D|-2-2-x-2-2-2-2-2-2-xx-----| x2
A|-2-2-x-2-2-2-2-2-2-xx-----|
E|-0-0-x-0-0-0-0-0-0-xx-----|

3:15-3:21
e|-----------------------------------|
B|-----------------------------------|
G|-2-2-x-2-2-2-2-2-2-xx--------------|
D|-2-2-x-2-2-2-2-2-2-xx--------------| x2
A|-0-0-x-0-0-0-0-0-0-xx--------------|
E|-----------------------------------|

3:21-3:27
e|----------------------------|
B|----------------------------|
G|----------------------------|
D|-2-2-x-2-2-2-2-2-2-xxxx-----| x2 on the second time theres no dead notes
A|-2-2-x-2-2-2-2-2-2-xxxx-----|
E|-0-0-x-0-0-0-0-0-0-xxxx-----| 

3:28-3:40
e|-----------------------------------|
B|-----------------------------------|
G|-2-2-x-2-2-2-2-2-2-xx--------------|
D|-2-2-x-2-2-2-2-2-2-xx--------------| x2
A|-0-0-x-0-0-0-0-0-0-xx--------------|
E|-----------------------------------|

Final Chorus
3:41-3:43
e|--------------------------|
B|--------------------------|
G|--------------------------|
D|-2-2--2-2-2--2-2-2--------|
A|-2-2--2-2-2--2-2-2--------|
E|-0-0--0-0-0--0-0-0--------|

3:44-3:46
e|------------------------|
B|------------------------|
G|-2--2-2--2--2-2--2--2-2-|
D|-2--2-2--2--2-2--2--2-2-|
A|-0--0-0--0--0-0--0--0-0-|
E|------------------------|

3:47-3:57
e|------------------------|
B|------------------------|
G|-6-xx-4-xx-2~-----------|
D|-6-xx-4-xx-2~-----------| Let Ring
A|-4-xx-2-xx-0~-----------|
E|------------------------|

HAWTHORNE HEIGHTS=GREAT BAND
Related for The Transition Live Acoustic tab
Advertisement will be closed in 10 seconds