Song name
# A B C D E F G H I J K L M N O P Q R S T U V W X Y Z

Hayden Panettiere - Telescope tab

Hayden Panettiere Ė Telescope 

e|-1----------------------------------------------------------|
B|--3---------------------------------------------------------|
G|---2--------------------------------------------------------|
D|----3b-----------3-0-----0--------3-0-----0-------3-0-----0-|
A|---------------------0h3--------------0h3-------------0h3---|
D|-------0-------0-----------5p3-0------------5p3-0-----------|
             Yeah                  ooooh           mmmm
e|---------------------------1-1-|
B|---------------------------1-3-|
G|-----0s2-2-2p0-------------2-2-|
D|---------------3p0---3---0-3-0-|
A|-------------------3---3---3-0-|
D|-5p3-----------------------x-0-|

(verse)
G           F        Dm
Wonít do no good, if you run from me
G               F                 Dm
There ainít no cheatiní, scheminí my heart donít see
G             F              Dm                G F Dm
You left your troubles in my head, in my head
G             F             Dm
You left your secrets in my bed, in my bed
A
Youíre like the cover of a book thatís been read, baby
G           F              Dm
I know what line is coming next, coming next



(chorus)
A   G     Dm 
You canít hide from me,
A                G                   Dm
  There ainít no tricks that you can try on me
A             G          Dm    
  I know your every move before you even breathe baby
A                                   G
Thinking you know something I donít know
G  (no chord)
But my eyes, my eyes, my eyes are like a telescope

instrumental
e|----------------------------------------------|
B|----------------------------------------------|
G|----------------------------------------------|
D|---3-0-----0--------3-0-----0-------3-0-----0-|
A|-------0h3--------------0h3-------------0h3---|
D|-0-----------5p3-0------------5p3-0-----------|
 
e|----------------------------1-|
B|----------------------------3-|
G|-----0s2-2-2p0--------------2-|
D|---------------3p0---3---0--0-|
A|-------------------3---3----0-|
D|-5p3------------------------0-|

(verse)
G              F         Dm 
Youíre kissing her, when my head is turned
G           F           Dm 
You must be crazy baby, havenít you learned?
G           F              Dm  
You canít deceive me silly child, silly child
G       F                   Dm 
I donít believe that pretty smile, pretty smile
(no chord)
My intuition can see for miles and miles baby

Every little sin, and everywhere youíve been



(chorus)
A   G     Dm    
You canít hide from me,
A              G                   Dm 
There ainít no tricks that you can try on me
A            G         Dm
I know your every move before you even breathe baby
A                                   G
Thinking you know something I donít know
                         G                         A G Dm
But my eyes, my eyes, my eyes are like a telescope  Yeah, yeah


(instrumental)
A G Dm, A G Dm, A    Dm 


(bridge)
(no chord)
You left your troubles in my head, in my head

You left your secrets in my bed,



(chorus)
A   G     Dm 
You canít hide from me,
A                G                   Dm
  There ainít no tricks that you can try on me
A             G          Dm    
  I know your every move before you even breathe baby
G                 F                 Dm
Thinking you know something I donít know but my eyes, 

(out)
A   G     Dm 
You canít hide from me,
A                G                   Dm
  There ainít no tricks that you can try on me
A             G          Dm    
  I know your every move before you even breathe baby
G                 F                 Dm
Thinking you know something I donít know
Dm                                            Dm
But my eyes, my eyes, my eyes are like a telescope

e|-------------------------------------------------------------1-|
B|-------------------------------------------------------------3-|
G|-------------------------------------------------------------2-|
D|---3-0-----0--------3-0-----0-------3-0-----0------3-0-----0-0-|
A|-------0h3--------------0h3-------------0h3------------0h3---0-|
D|-0-----------5p3-0------------5p3-0-----------5p3-0----------0-|
Tap to rate this tab
# A B C D E F G H I J K L M N O P Q R S T U V W X Y Z