Guitaretab - guitar tabs
Song name
# A B C D E F G H I J K L M N O P Q R S T U V W X Y Z

Hayden - Killbear tab

(High e, Low E both tuned down to D)
(capo fret 1)

Intro
d|-|--2-------------|-----------------|-0-------------|----------------|
B|-|---------3--2---|-----------------|-------2---0---|----------------|
G|-|---------2--2---|-4-----2--2--1---|---------------|-2-----1--------|
D|-|----------------|-----------------|---------------|-----------0----|
A|-|----------------|-----------------|---------------|----------------|
D|-|--2---2---2---2-|-2---2---2---0h2-|-2---2---2---2-|-2---2---2---2--|

[ Tab from: http://www.guitaretab.com/h/hayden/102624.html ]
d|-|----------------|---------------|-----------------|----------------|
B|-|--------0---2---|---------------|-----------------|----------------|
G|-|--2-------------|-2-------------|---------2-------|-1-----1--------|
D|-|----------------|-------2-------|(0h2)--------2---|-----------0----|
A|-|----------------|-----------4---|-----------------|----------------|
D|-|--2---2---2---2-|-2---2---2---2-|-0h2---2---2---2-|-2---2---2---2--|


Verse
d|-|----------------|---------------|---------------|----------------|
B|-|----------------|---------------|---------------|-0--------------|
G|-|------------2---|-------2-------|-------1-------|-------1--------|
D|-|--------2-------|-----------2---|-----------2---|-----------2----|
A|-|--4-------------|-4-------------|-0h2-----------|----------------|
D|-|--2---2---2---2-|-2---2---2---2-|-2---2---2---2-|-2---2---2---2--|

d|-|----------------|---------------|-----------------|----------------|
B|-|----------------|-2-------------|-----------------|-0--------------|
G|-|--------2-------|-------2-------|---------1-------|-------1--------|
D|-|--2---------2---|-----------2---|(0h2)--------2---|-----------2----|
A|-|----------------|---------------|-----------------|----------------|
D|-|--2---2---2---2-|-2---2---2---2-|-0h2---2---2---2-|-2---2---2---2--|

still figurin out chorus... hope this helps
Related for Killbear tab
×
Killbear