Song name
# A B C D E F G H I J K L M N O P Q R S T U V W X Y Z

Hayden - More Than Alive tab

Help us improve GuitareTab! Take a short survey!
Theres not much guitar but this is what I have...

(1:13)
e-----------------------------------|
b-----------------------------------|
g--5-2---2--------------------------|
d------5---3------------------------|
a-----------------------------------|
e-----------------------------------|


And at (1:39)...
e-----------------------------------|
b-----------------------------------|
g---555-55--555-55------------------|
d-----------------------------------|
a-----------------------------------|
e-----------------------------------|

e-----------------------------------|
b-----------------------------------|
g---5\2---5\2--7\2----5\2---5\2--5\2|
d-----------------------------------|
a-----------------------------------|
e-----------------------------------|

e-----------------------------------|
b-----------------------------------|
g---5\2---5\2--7\2----5\2---5\2--5\2|
d-----------------------------------|
a-----------------------------------|
e-----------------------------------|

e-----------------------------------|
b-----------------------------------|
g---5\2---5\2--7\2----5\2---5\2--5\2|
d-----------------------------------|
a-----------------------------------|
e-----------------------------------|

And the low guitar in that section is...

e-----------------------------------|
b-----------------------------------|
g-----------------------------------|
d-----------------------------------|
a-----------------------------------|
e---3\1---3\1--8-7----3\1---3\1--3\1|


try around with it because it may not be exactly right
Related for More Than Alive tab