Song name
# A B C D E F G H I J K L M N O P Q R S T U V W X Y Z

Hayden - That Was Yesterday tab

i made this in ma room and the  tune is VERY CATCHY!!!!
standered tuning: eadgbe

*= palm mute


intro:
e-0-0-0-0-0-0-0-0-0-0|-0-0-0-0-0-0-0-0-----|
b-1-1-1-1-1-1-1-1-1-1|-1-1-1-1-1-1-1-1-545-|
g-0-0-2-0-0-2-0-0-2-0|-0-0-2-0-0-0-2-0-545-|
d-2-2-0-2-2-0-2-2-0-2|-2-2-0-2-2-0-2-2-545-|
a-3-3-3-3-3-3-3-3-3-3|-3-3-3-3-3-3-3-3-----|
e-0-0-0-0-0-0-0-0-0-0|-0-0-0-0-0-0-0-0-----|
  * * * * * * * * * *  * * * * * * * *

verse:                                         _
e-0-0-0-0-0-0-0-0-0-0                           |
b-1-1-1-1-1-1-1-1-1-1                           |
g-0-0-2-0-0-2-0-0-2-0 X4                        |
d-2-2-0-2-2-0-2-2-0-2                           |
a-3-3-3-3-3-3-3-3-3-3                           |
e-0-0-0-0-0-0-0-0-0-0                           |

i-i went to a new high school and i saw a girl
more i stared she was so pretty she made me a hirl
she looked at me and i looked back and we knew it was ture
both wanted to scream at each other i lo-ove you.(bridge)

after shool we went to a hill just to see the view
it got dark, we headed back holding hands with you
we got lost and u got scaredactually petrified
i pulled out my cell nad called a very good friend of mine.bridge)

we went home and mym mum said ''where the hellve you been''
i said ''nowhere,just around hanging with my friend''
my mum said she better leave her folks mighted worry
i looked and her and she looked ack and i said ''im sorry''(chorus)

she ran o-out of the house slammin the front door
i said fine if thats how u want it stupid bloody &$*@($
..next day at school she looked at me and i looked back again
then knew it was the very end (bridge)then(outro).
                                                |
part after verse (i think bridge lol):          |
e--------------------|--------------------0     |REAPEAT 4 TIMES!!
b--------------------|--------------------0 or 2|
g-1-1-2-1-1-2-1-1-2-1|1-1-2-1-1-2-1-1-2-1-0     |
d-2-2-0-2-2-0-2-2-0-2|2-2-0-2-2-0-2-2-0-2--     |
a-2-2-2-2-2-2-2-2-2-2|2-2-2-2-2-2-2-2-2-2--     |
e-0-0-0-0-0-0-0-0-0-0|0-0-0-0-0-0-0-0-0-0--     |
                                                |
                                               _|

chorus:
e-2-2-2-0-|
b-3-3---1-|
g-2-2---0-|
d-------2-|
a-------3-|
e-------0-|
(that was yesterday)

outro:
REPEAT THE INTRO BUT STRUM ALL STRINGS ON LAST NOTE! :)
and thats it
Tap to rate this tab
# A B C D E F G H I J K L M N O P Q R S T U V W X Y Z