Song name
# A B C D E F G H I J K L M N O P Q R S T U V W X Y Z

Hayden - Between Us To Hold tab

Between us to Hold
By: Ian Reilly (reilly@cyberbeach.net)
Song: "Between us to hold" by "Hayden"
Album: "The Closer I Get"

Verse:

E ------0---------------0---------------0-------------------------
B ----------0---------------0---------------0----------- 0--------
G --------------0---------------0----------------------------0----
D --5---------------4---------------2-----------2----0---------0--
A ----------------------------------------------------------------
E ----------------------------------------------------------------

E -------3-------------------3-------------2-----2------------2---
B ----------3--------------------3---------3----------------------
G ----------------0------------------0-----2---------0-H-2--------
D ----------------------------------------------------------------
A --3-----------------2-------------------------------------------
E ----------------------------------------------------------------

I taught you to play guitar last night
We'd been sick for days and we were stuck inside

Chorus:

    Am     C    G          D
And I held your arm as you hit the strings
Am        C    G                D          Am      D
I pressed your fingers down and started to sing

Verse:

The heater was shaking because the city was cold
And my favorite guitar was between us to hold

   Am      C    G          D
And I held your arm as you hit the strings
Am        C    G                D          Am    D
I pressed your fingers down and started to sing
Am     D
Sing

Verse guitar
End on D.
====
Tap to rate this tab
 
# A B C D E F G H I J K L M N O P Q R S T U V W X Y Z