Song name
# A B C D E F G H I J K L M N O P Q R S T U V W X Y Z

Hayden - Skates tab

Skates
By: David Harrison: blaze@interlog.com
Song: “Skates” by “Hayden”
Album: “everything i long for”(1995)

Here’s a cool song by one of my favorite artists. It’s not very
hard but if you have any questions, additions, corrections, or
comments feel free to e-mail them to me.

*********************
* Tune Down 2 Steps *
*********************


[Riff 1]
C|-----0-x-0------0-0----------0-0-0-0---0-0---||
G|-----0-x-0------0-0----------0-0-0-0---0-0---||
E|-----1-x-1-/5---5-5-0-4~/6---6-6-6-6---6-6-0-||
B|-2---2-x-2-/5---5-5-0-5~/7---7-7-7-7---7-7-0-||
F|-2---2-x-2-/3---3-3-0-5~/7---7-7-7-7---7-7-0-||
C|-0---0-x-0------------3~/5---5-5-5-5---5-5-0-||
********************************************************
* Keep in mind that the strumming of this riff changes *
* throughout the song and wont be exactly as written.  *
********************************************************


[Riff 2]
C|----------------------------------||
G|----------------------------------||
E|-7----------------5---------------||
B|-7----------------5---------------||
F|-5----------------3---------------||
C|----------------------------------||
====
Tap to rate this tab
# A B C D E F G H I J K L M N O P Q R S T U V W X Y Z