Song name
# A B C D E F G H I J K L M N O P Q R S T U V W X Y Z

Hayehudim - Oh Lord tab

E||-----------------------|-------------------------|
B||--2--------------------|--2h3h2------------------|
G||------------2--------2-|--------2-------------2--|
D||-------2---------2-----|-----------------2-------|
A||--0--------------------|-------------------------|
E||-----------------------|------------3------------|

                                                                           
---------------------------|-------------------------|-----------------------|
---------------------------|---------------2h3h2-----|-----------------------|
---------2h4h2-------------|----2--------2-------2---|------------2----------|
---2h4---------4h2------2--|---------2---------------|-------2---------2---2-|
---------------------------|-------------------------|-----------------------|
-------------------2-------|-------------------------|--1--------------------|

                                                     
--------|-----------------------|-------------------------|
--2-----|--2--------------------|--2h3h2------------------|
--------|------------2--------2-|--------2-------------2--|
--------|-------2---------2-----|-----------------2-------|
--------|--0--------------------|-------------------------|
--------|-----------------------|------------3------------|

                                                                    
---------------------------|-------------------------|-------------------|
---------------------------|---------------2h3h2-----|-------------------|
---------2h4h2-------------|----2--------2-------2---|-------------------|
---2h4---------4h2------2--|---------2---------------|-------------------|
---------------------------|-------------------------|-------------------|
-------------------2-------|-------------------------|--1----------------|


| G F#m A | A |   X8


G F#m A      G F#m A
Oh lord
  F F#m  A     G F#m A
Let me go 
      G  F#m  A
Cause my innocence 
        G F#m  A
Sometime makes me mad 
        G F#m  A
God I'm so afraid 
        G     F#m    A
Why can't you understand it? 


A
Lord 
                  G
You got to let it be 
                   F#m
You got to let it roll 
      F                   A
Just don't expect something 
                  G
Now what do you mean 
                F#m
I'm letting you go 
         F
Cause I don't believe in anybody 
A
anymore 
A
It's everybody's war 


| G Fm A | A |   X8


Oh lord 
Let me fall 
Cause I can not stand 
Knowing I'll be dead 
Makes me feel so scared 
Why can't you understand it? 

Lord 
You got to let it be 
You got to let it roll 
Just don't expect something 
Now what do you mean 
I'm letting you go 
Cause I don't believe in anybody 
anymore 
It's everybody's war
Tap to rate this tab
 
# A B C D E F G H I J K L M N O P Q R S T U V W X Y Z