Song name
# A B C D E F G H I J K L M N O P Q R S T U V W X Y Z

Hayehudim - Hazman Shelach tab

:-----------------------------------------------------------------------0------|
B:-------0-1----------0--1---------0--1-----0--1----0---1-----------0-1----1-0-1|
G:----2------------0-------------2-------0--------0-------(0)-----2-------------|
D:-3------------------------------------------------------------3---------------|
A:----------------------------0-------------------------------------------------|
E:---------------3--------------------------------------------------------------|

verse:
e:---------|---|---------|--|--------|-----|-----------------------------------|
B:---------|---|---------|--|--------|-----|------1------0-1-----1------1------|
G:-----2---|-*8|-----2---|*4|----0---|-*4--|----0---0--0-------0---0--0---0----|
D:---2---2-|---|---0---0-|--|--------|-----|-----------------------------------|
A:-0-------|---|---------|--|--3---3-|-----|---3------3------3-------2---------|
E:---------|---|-3-------|--|-1------|-----|-----------------------------------|

e:----------|--|---------|--|--------|-----|-----------------------------------|
B:----------|--|---------|--|--------|-----|------1--0-1-----0-1---1-------1---|
G:-----2----|*4|-----2---|*4|----0---|--*4-|----0------------------------0---0-|
D:---2---2--|--|---0---0-|--|--------|-----|-----------------------------------|
A:-0--------|--|---------|--|--3---3-|-----|0h3----3-------3-----3-----2-------|
E:----------|--|-3-------|--|-1------|-----|-----------------------------------|

e:----------|--|---------|--|---------|---|------------------------------------|
B:----------|--|---------|--|---------|---|------1-------0-1------0--1----1----|
G:-----2----|*4|-----2---|*4|-----0---|*4-|-----------(0)-------(0)-----0---0--|
D:---2---2--|--|---0---0-|--|---------|---|------------------------------------|
A:-0--------|--|---------|--|---3---3-|---|-0h3------3---------3------2--------|
E:----------|--|-3-------|--|--1------|---|------------------------------------|

e:----------|--|---------|--|---------|----|--------------------3--------------|
B:----------|--|---------|--|---------|----|-----0-1----1-------1--------------|
G:-----2----|*4|-----2---|*4|-----0---|-*4-|-----------------------------------|
D:---2---2--|--|---0---0-|--|---------|----|-----------------------------------|
A:-0--------|--|---------|--|---3---3-|----|---3------3------3-----------------|
E:----------|--|-3-------|--|--1------|----|-----------------------------------|

Tap to rate this tab
# A B C D E F G H I J K L M N O P Q R S T U V W X Y Z