Hayley Williams - Bed Intruder Song tab

Version Ft. Hayley Williams, Jordan Pundik & Ethan Luck


he's climbin in your windows (...) we gon find you...
e|----------------------------------|
B|----------------------------------|
G|----55-77----55-77--33--88--1010--|
D|-55-55-77-55-55-77--33--88--1010--|
A|-55-33-55-55-33-55--11--66--8-8---|
E|-33-------33----------------------|
         Pm---

so you can run and tell that...
e|----------------------------------|
B|----------------------------------|
G|---------------------------5555-7-|
D|-555-22-3-5--5-2-3-5----55-5555-7-|
A|-555-22-3-5--5-2-3-5----55-3333-5-|
E|-333-00-1-3--3-0-1-3----33--------|

we got your t-shirt...
e|-------------------------|
B|-------------------------|
G|-88-7-5-----88-7-3-------|
D|-88-7-5-55--88-7-3-33-3--|
A|-66-5-3-55--66-5-5-33-3--|
E|--------33---------11-1--|
              Pm----

i was attacked (...) so dumb... soo
e|-------------------------|
B|-------------------------|
G|------7------------------|
D|-333--7-3----55555-------|
A|-333--5-3----55555-------|
E|-111----1----33333-------|

repeat
Tap to rate this tab
 
# A B C D E F G H I J K L M N O P Q R S T U V W X Y Z