Song name
# A B C D E F G H I J K L M N O P Q R S T U V W X Y Z

Hayley Williams - Somebody I Used To Know Cover tab

C# tuning


D|------------------------------------------------------------------------------|
A|------------------------------------------------------------------------------|
F|------------------------------------------------------------------------------|
C#|-000000000000000000000000000000000000000-------------------------------------|
G|------------------------------------------------------------------------------|
C#|-----------------------------------------------------------------------------|

(Piano melody)
D|-------------------------------------------------------------------------------------|
A|-----------------------10-11-13--10--------------------------------------------------|
F|-------------12-12---------------------12-----10-10-9-9------------------------------|
C#|---12-12------------------------------------------------------12-12-10--------------|
G|-------------------------------------------------------------------------------------|
C#|------------------------------------------------------------------------------------|

D|--------------------------------------------------------------------10--------------|
A|-----------------------10-11-13--10-------------------------------------------------|
F|-------------12-12---------------------12-----10-10-9-------------------------------|
C#|---12-12---------------------------------------------------12----------------------|
G|------------------------------------------------------------------------------------|
C#|-----------------------------------------------------------------------------------|


Verse:
D|----------------------------------------------------|---------------------------|
A|------3-------3-------3--------3-3---------------|------------------------------|
F|------2-------0-------2--------0-0------etc.----|-------------------------------|
C#|---0---------------0-------------------------------|---------------------------|
G|-----------3----------------3----------------------|---5--5-3---3--5------------|
C#|----------------------------------------------------|--------------------------|

Chorus: Dm C Bb C (repeat)

Chords:
Dm:x57765
C:8 10 10 7 8 8
Bb:688766
Tap to rate this tab
# A B C D E F G H I J K L M N O P Q R S T U V W X Y Z