Song name
# A B C D E F G H I J K L M N O P Q R S T U V W X Y Z

Hayseed Dixie - Born To Die In France tab

-----------------------------------------------------------------------------
	          BORN TO DIE IN FRANCE - Hayseed Dixie
-----------------------------------------------------------------------------
Tabbed by: El Rafael
Email: mail@rafaelwitak.com

Tuning: Standard

I'm gonna update this soon to a full-song-version (cause this here's already most of 
)
Listen to original for rythm/timing. If you encounter any problems, try slowing down the 
with whatever software you like to use...
Please comment to help me improve this tab!

e|------------------------------------0-------|
B|------------------3-----------1-------1---1-|
G|------------2---2-----0-0h2-------2-----2---|
D|--------3---0---------------0---0-----------|
A|----3h5-------------------------------------|
E|3h5-----------------------------------------|


e|--------------------------------------------------------0-------|
B|------3-----------1-------------------3-----------1-------1---1-|
G|----------0---------------0-----2---2-----0-0h2-------2-----2---|
D|----0---0---0-3-3-----2-3---2---0-----------0---0---0-----------|
A|----------------------------------------------------------------|
E|2h3-------------------------------------------------------------|

e|--------------------------------------------------------0-------|
B|------3-------------------------------3-----------1-------1---1-|
G|----------0---------------------2---2-----0-0h2-------2-----2---|
D|----0---0---0-3-3-----------3---0---------------0---0-----------|
A|------------------------3h5-------------------------------------|
E|2h3-----------------3h5-----------------------------------------|


e|------------------------------------------------------------------||
B|------3-----------1-------------------3-------3-----------------3-||
G|----------0-----------------0---------------0-------------------2-||
D|----0---0---0-3-3---3p0-2h3-----3/5-5-----5-----5\3-3-3-3-0-----0-||
A|------------------------------------------------------------3---0-||
E|2h3---------------------------------------------------------------||

| /  slide up
| \  slide down
| h  hammer-on
| p  pull-off
| ~  vibrato
| +  harmonic
| x  Mute note
=============================================================================
Tap to rate this tab
# A B C D E F G H I J K L M N O P Q R S T U V W X Y Z