Hazy Hamlet - Forging Metal tab

  G5      F5                     G5          G#5
E|--------------------------------------------------------------|
B|--------------------------------------------------------------|
G|-------------------------3h5-5~-------------------------------|
D|-----5---------------5--------------5-------------------------|
A|-----5---3/5-3/5-----5--------------5---3/5---6---6---6-5-3---|
E|-3-3-3-3-1/3-1/3-3-3-3-3--------3-3-3-3-1/3-4---------------6-|


    G5          F5                 G#5
E|--------------------------------------------------------------|
B|--------------------------------------------------------------|
G|-------------------------3h5-5~-------------------------------|
D|-----5---------------5----------------------------------------|
A|-----5---3/5-3/5-----5--------------6---5-3---3---------------|
E|-3-3-3-3-1/3-1/3-3-3-3-3--------4-4---6-----6----1-3-5-6-5-3-1|

   G5  G5
E|---|---|----|
B|---|---|----|
G|---|---|----|
D|-5-|-5-|-x/-|
A|-5-|-5-|-x/-|
E|-3-|-3-|-x/-|
Tap to rate this tab
 
# A B C D E F G H I J K L M N O P Q R S T U V W X Y Z