Song name
# A B C D E F G H I J K L M N O P Q R S T U V W X Y Z

He Is Legend - The Creature Walks tab

Artist: He Is Legend
Song: The Creature Walks
Album: I Am Hollywood
Tabbed by: Dewey Raposo a.k.a. kdcisgod
Email: kdcisgod@cox.net
Tuning: Dropped D
Notes: I’m not putting up all the parts for both guitars. Figure the rest out yourself, 
actually fun haha (to me, at least).

Intro/Verses:
E|----9--------9--------9-------0---|
B|--7-----7--------7----------7---7-|
G|9---------9--------9--------------|
D|------------------------9---------|
A|----------------------------------|
D|----------------------------------|

Pre-Chorus:
E|------------------------------------|
B|------------------------------------|
G|------------------------------------|
D|0---------6h7p6h7p6h7p6h7p6h7p6h7---|
A|0---------------------------------8-|
D|0-----------------------------------|

Chorus (only the lead):
E|---------------------------------------------------|
B|---------------------------------9-h10-9h10-9h10p9-|
G|9--11-11---9--11-11---9--11-11---------------------|
D|---------------------------------------------------|
A|---------------------------------------------------|
D|---------------------------------------------------|

E|----------------------------------------------------|
B|---------------------------------9-h10-9h10-9h10h12-|
G|9--11-11---9--11-11---9--11-11----------------------|
D|----------------------------------------------------|
A|----------------------------------------------------|
D|----------------------------------------------------|
  (bend, release, pull-off)
E|-------------------------------------------|
B|12b-r-p10-----12b-r-p10-----12b-r-p10------|
G|----------11------------11-------------11--|
D|-------------------------------------------|
A|-------------------------------------------|
D|-------------------------------------------|

E|--------------------- E|-------| Hit that
B|9-h10-9h10-9h10p9---- B|-------| to end the
G|------------------9-- G|-------| chorus, or
D|--------------------- D|4------| go immidiately
A|---After this do----- A|4------| back to
D|-the first one again- D|4------| the verse riff.

Play the verse and chorus again, and then play
           * pick the harmonics more than once
E|--------[4]-------|------------|---second---|
B|--------[4]-------|---first----|---ending---|
G|--------[4]-three-|---ending---|7--7--6--6--|
D|4--2-4--[4]-times-|0--0--3--3--|7--7--6--6--|
A|4--2-4------------|0--0--4--4--|5--5--4--4--|
D|4--2-4------------|0--0--3--3--|------------|

Pre-“breakdown”
E|----------------------------------------|
B|----------------------------------------|
G|14-14--14-13-13--13-14-14--14-16-16--16-|
D|16-16--16-14-14--14-16-16--16-18-18--18-|
A|------------A bunch of times------------|
D|----------------------------------------|

E|---One guitar-----------SWEET---------|
B|---per string---------BASS FILL-------|
G|--------------------------------------|
D|11--9--11--12--(9h11--9-11-12-11-9---)|
A|12-11--12--14--(-------------------12)|
D|--------------------------------------|

“Breakdown”
E|----------------------------------------|
B|----------------------------------------|
G|14-14--14-13-13--13-14-14--14-16-16--16-|
D|16-16--16-14-14--14-16-16--16-18-18--18-|
A|--------------Three times---------------|
D|----------------------------------------|

E|---------------------------One guitar--|
B|---------------------------per string--|
G|14-14--14-13-13--13--------------------|
D|16-16--16-14-14--14-----11--9--11--12--|
A|------------------------12-11--12--14--|
D|--------------------0-0----------------|
                      . .
Pre-(second)”Breakdown”
E|-----SHRED-----|
B|---------------|
G|-----------4h7-|
D|--------3h6----|
A|-----2h5-------|
D|0-3h6----------|
  .
(Second) Breakdown
“Wake yourself up”
E|------------------------------|
B|------------------------------|
G|------------------------------|
D|4--7-6-4/-4--7-6-4/-0--7-6-4/-|
A|4---------4---------0---------|
D|4---------4---------0---------|

(1st ending) (2nd ending)
E|-----------/--------------------------|
B|-----------/--------------------------|
G|-----------/--------6-7-6-------------|
D|3--0-4-6-7-/----6-9-------9-6-6h7p6---|
A|4----------/4-8--------------------7--|
D|3----------/--------------------------|
(3rd ending)
E|----------4h5p4---------------------------------|
B|---------------7-6------------------------------|
G|------------------------------------------------|
D|3-3--3-3-----------0--6h7p6h7p6h7p6h7p6h7p6h7---|
A|4-4--4-4-----------0-------------------------8--|
D|3-3--3-3-----------0----------------------------|

E|---------|
B|---------| then
G|---------| just
D|4--2-4/--| bass
A|4--2-4/--| plays
D|4--2-4/--|

Chorus again, with some ad-lib in the lead I’m not gonna tab out. Use your head! (he 
the 12 a lot lol)

End with:
E|-Three-[4]|------------|
B|-Times-[4]|------------|
G|-------[4]|------------|
D|4--2-4-[4]|0--0--3--3--|
A|4--2-4----|0--0--4--4--|
D|4--2-4----|0--0--3--3--|

Then add the harmony:
E|----three------|------------|---------|
B|----times------|------------|---------|
G|---------------|------------|---------|
D|/7--6-7--------|0--0--3--3--|4--2-4/--|
A|--------00-0-0-|0--0--4--4--|4--2-4/--|
D|--------00-0-0-|0--0--3--3--|4--2-4/--|

That’s it. It should be pretty right but it did only take me like 15-20 minutes to make this lol.
Tap to rate this tab
# A B C D E F G H I J K L M N O P Q R S T U V W X Y Z