Song name
# A B C D E F G H I J K L M N O P Q R S T U V W X Y Z

He Is Legend - Electronic Throat tab

He Is Legend
Electronic Throat
Suck Out The Poison

-Standard tuning so you can easily play along with this sweet southern intro-
it's pretty easy, don't let the tab fool you. it's just technical so you can get it right easier

b - bend
r - release
v - vibrato (bend up and down quickly for a sustained note)
/ - slide to note
p - pull-off to note
h - hammer on to note
~ - sustain


E|-----------------------------------------------------|
B|----8-------------------------8----------------------|
G|-7b9-r7/5-----------5v~----7b9-r7/5------------------|
D|----------8p5h8p5h8----------------8p5h8p5/4---------|
A|--------------------------------------------8-6h8p6--|
E|-----------------------------------------------------|

Repeat twice for intro



in case it's hard to read, here's each note separate without
the fancy tab terms. you can play this to learn every note played
then work into using the advanced form of it
E|-------------------------------------------------------|
B|----8------------------------8-------------------------|
G|-7-9--9-7-5----------5----7-9--9-7-5-------------------|
D|-----------8-5-8-5-8----------------8-5-8-5-4----------|
A|----------------------------------------------8-6-8-6--|
E|-------------------------------------------------------|
Tap to rate this tab
 
# A B C D E F G H I J K L M N O P Q R S T U V W X Y Z