Song name
# A B C D E F G H I J K L M N O P Q R S T U V W X Y Z

He Is Legend - Cult Of She tab

-----------------------------------------------------------------
Cult Of She - He Is Legend
-----------------------------------------------------------------
Tabbed by: millarso (Jake Miller)
Email: millarso2.0@gmail.com

Tuning: Drop C

SECTION 1
Guitar 1 (Reverb)
D|-----------------------------------------------------------------||
A|-12----14----15----11----11-----12----14----15-----8------6------||
F|-14b16-16b18-17b19-13b15-13b15--14b16-16b18-17b19--10b12--8b10---||
c|-----------------------------------------------------------------||
G|-----------------------------------------------------------------||
C|-----------------------------------------------------------------||
                                                                    |
Guitar 2                                                            |
D|-----------------------------------------------------------------||
A|-----------------------------------------------------------------||
F|-----------------------------------------------------------------||
c|-/9-----8-----4-----5-----5--4-5/9-----8-----4------5-----3--3-4-||
G|-/9-----8-----4-----5-----5--4-5/9-----8-----4------5-----3--3-4-||
C|-/9-----8-----4-----5-----5--4-5/9-----8-----4------5-----3--3-4-||

Guitar 1 (Reverb)
D|----------------------------------------------------------------||
A|-12----14----15----11----11-----12----14----15-----8------6-----||
F|-14b16-16b18-17b19-13b15-13b15--14b16-16b18-17b19--10b12--8b10--||
c|----------------------------------------------------------------||
G|----------------------------------------------------------------||
C|----------------------------------------------------------------||
                                                                   |
Guitar 2                                                           |
D|----------------------------------------------------------------||
A|----------------------------------------------------------------||
F|----------------------------------------------------------------||
c|-/9-----8-----4-----5-----5--4-5/9-----8-----4------5-----2--2--||
G|-/9-----8-----4-----5-----5--4-5/9-----8-----4------5-----2--2--||
C|-/9-----8-----4-----5-----5--4-5/9-----8-----4------5-----2--2--||

TRANSITION 1
Guitar 1 (Lo-fi distortion)
D|---------------------------------------|
A|-2-------0-0-2-2-3---------------------|
F|-3-(x12)-1-1-3-3-4-(x16)-2------0------|
c|-------------------------4-(x8)-2-(x8)-|
G|---------------------------------------|
C|---------------------------------------|

SECTION 2 (clean, reverb & delay)
Guitar 1
D|------------0-2-0-------------------|
A|-2~----0h2h3------3-2-3-2-----------|
F|--------------------------3---------|
c|----------------------------4---5---|x4
G|------------------------------------|
C|------------------------------------|

Guitar 2
D|------------------------------------|
A|------------2-3-2-------------------|
F|-3~----0h3h4------4-3-4-3-0---------|
c|----------------------------4---5---|x4
G|------------------------------------|
C|------------------------------------|

NOTE: The last time through, hold the last note for a few measures

SECTION 3
Both Guitars
D|-----------------------------------------------------------------------|
A|-----------------------------------------------------------------------|
F|-----------------------------------------------------------------------|
c|-0-0-0-0-0-0-0-0-10-10-10-10-10-10-10-10-0-0-0-0-0-0-0-0-10-10-10-10---|
G|-0-0-0-0-0-0-0-0-10-10-10-10-10-10-10-10-0-0-0-0-0-0-0-0-10-10-10-10---|
C|-0-0-0-0-0-0-0-0-10-10-10-10-10-10-10-10-0-0-0-0-0-0-0-0-10-10-10-10---|

SECTION 4 (If the rhythm seems weird below, listen to the track)
Guitar 1
D|--------------------------------------------------------------------|
A|--------------------------------------------------------------------|
F|-11--11-----10--10-----10/11--7--7------7/11--10--10-----13--13-----|
c|--x---x(x14)-x---x(x11)-x--x--x--x(x11)-x--x---x---x(x6)--x---x(x6)-|
G|--9---9------8---8------8/-9--5--5------5/-9---8---8-----11--11-----|
C|--------------------------------------------------------------------|

Guitar 2
D|------------------------------------------------------------------------|
A|------------------------------------------------------------------------|
F|------------------------------------------------------------------------|
c|--9--9------9h11--3--3------3h4--9--9------9h11--3--3-----6----------0--|
G|--9--9(x11)-9h11--3--3(x11)-3h4--9--9(x11)-9h11--3--3(x6)-6--0-0-0-0-0--|
C|--9--9------9h11--3--3------3h4--9--9------9h11--3--3-----6--0-0-0-0-0--|
                                                               . . . . 

Guitar 1
D|----------------------------------------------------------------|
A|----------------------------------------------------------------|
F|-11--11-----10--10-----10/11--7--7------7/11--10--10------------|
c|--x---x(x14)-x---x(x11)-x--x--x--x(x11)-x--x---x---x(x11)-------|
G|--9---9------8---8------8/-9--5--5------5/-9---8---8------------|
C|----------------------------------------------------------0h3p0-|

Guitar 2
D|------------------------------------------------------------------|
A|------------------------------------------------------------------|
F|------------------------------------------------------------------|
c|--9--9------9h11--3--3------3h4--9--9------3-3--5-5--7-7--0-------|
G|--9--9(x11)-9h11--3--3(x11)-3h4--9--9(x14)-3-3--5-5--7-7--0-------|
C|--9--9------9h11--3--3------3h4--9--9------3-3--5-5--7-7--0-0h3p0-|

SECTION 5 (Feel free to slightly bend all of the non-open notes for a little extra grit)
Both Guitars
D|----------------------------------------------|
A|----------------------------------------------|
F|----------------------------------------------|
c|----------------------------------------------|
G|----------------------------------------------|
C|-2~-0h2-0h2-5p0-0-0h3p0---2-2-0h2-5p0-0-0h3p0-|

D|-------------------------------------------------------------|
A|-------------------------------------------------------------|
F|-------------------------------------------------------------|
c|-------------------------------------------------------------|
G|-------------------------------------------------------------|
C|-3~-2~-0h2-5p0-0-0h3p0---2-2-0h2-5p3--3--3-7p0--0--0-3-2-0-3-|

D|----------------------------------------------|
A|----------------------------------------------|
F|----------------------------------------------|
c|----------------------------------------------|
G|----------------------------------------------|
C|-2~-0h2-0h2-5p0-0-0h3p0---2-2-0h2-5p0-0-0h3p0-|

D|------------------------------------------------------------|
A|------------------------------------------------------------|
F|------------------------------------------------------------|
c|----2-------------------------------------------------------|
G|-2222-------------------------------------------------------|
C|-2222-0h2-5p0-0-0h3p0---2-2-0h2-5p3--3--3-7p0--0--0-3-2-0-3-|
   ...

SECTION 6
Guitar 1 (Lo-fi distortion)
D|----------------------------------------|
A|-2-------0-0-2-2-3----------------------|
F|-3-(x12)-1-1-3-3-4-(x16)-2------0-------|
c|-------------------------4-(x8)-2-(x8)--|
G|----------------------------------------|
C|----------------------------------------|

Guitar 2
D|----------------------------------------|
A|----------------------------------------|
F|----------------------------------------|
c|---------------4-5-------0------10------|
G|---------------4-5-(x16)-0-(x8)-10-(x8)-|
C|---------------4-5-------0------10------|

Guitar 1 (Lo-fi distortion)
D|----------------------------------------|
A|-2-------2-0--2--3----------------------|
F|-3-(x12)-3-1--3--4-(x16)-2------0-------|
c|-------------------------4-(x8)-2-(x8)--|
G|----------------------------------------|
C|----------------------------------------|

Guitar 2
D|----------------------------------------|
A|----------------------------------------|
F|----------------------------------------|
c|-4-------4-2--4--5-------0------10------|
G|-4-(x12)-4-2--4--5-(x16)-0-(x8)-10-(x8)-|
C|-4-------4-2--4--5-------0------10------|

D|------------------------------------------------|
A|------------------------------------------------|
F|------------------------------------------------|
c|-4--4--4---4-2--4--5-5--------------------------|
G|-4--4--4---4-2--4--5-5--------------------------|
C|-4--4--4---4-2--4--5-5-----0--0--0--10--0h10-10-|

D|---------------------------|
A|---------------------------|
F|---------------------------|
c|-4--4--4---4-2--4--5-------|
G|-4--4--4---4-2--4--5-(x15)-|
C|-4--4--4---4-2--4--5-------|

D|---------------------------------------------------------------------------------|
A|---------------------------------------------------------------------------------|
F|---------------------------------------------------------------------------------|
c|-0-0-0-0-0-0-0-0-10-10-10-10-10-10-10-10-0-0-0-0-0-0-0-0-10-10-10-10-10-10-10-10-|
G|-0-0-0-0-0-0-0-0-10-10-10-10-10-10-10-10-0-0-0-0-0-0-0-0-10-10-10-10-10-10-10-10-|
C|-0-0-0-0-0-0-0-0-10-10-10-10-10-10-10-10-0-0-0-0-0-0-0-0-10-10-10-10-10-10-10-10-|

D|---------------------------------------------------------------------|
A|---------------------------------------------------------------------|
F|---------------------------------------------------------------------|
c|---------------------------------------------------------------------|
G|---------------------------------------------------------------------|
C|-0-0-0-0-10-10-10-10-0-0-0-0-10-10-10-10-0-0-10-10-0-0-10-10-0-0-0-0-|

REPEAT SECTION 4

SECTION 7
Guitar 1
D|-----------------------------------------------------|
A|-----------------------------------------------------|
F|-7-7777776-6666669-9911-11114-4444443-3333337-777777-|
c|-x-xxxxxxx-xxxxxxx-xx-x--x-xx-xxxxxxx-xxxxxxx-xxxxxx-|x2
G|-5-5555554-4444447-77-9--9-92-2222221-1111115-555555-|
C|-----------------------------------------------------|

Guitar 2
D|--------------------------------------------------------|
A|--------------------------------------------------------|
F|--------------------------------------------------------|
c|--------------------------------------------------------|x2
G|--------------------------------------------------------|
C|-9-9999998-88888811-111112-12125-5555554-4444448-888888-|

Both Guitars
D|--------------------------------------------------------|
A|--------------------------------------------------------|
F|--------------------------------------------------------|
c|-9-9999998-88888811-111112-12125-5555554-4444448-888888-|x2
G|-9-9999998-88888811-111112-12125-5555554-4444448-888888-|
C|-9-9999998-88888811-111112-12125-5555554-4444448-888888-|

D|------------------------|  |----------------------------------|
A|------------------------|  |----------------------------------|
F|------------------------|  |----------------------------------|
c|-9-9--11-11--12-12--8-8-|x3|-----------------------9--8--5--4-|
G|-9-9--11-11--12-12--8-8-|  |-----------------------9--8--5--4-|
C|-9-9--11-11--12-12--8-8-|  |-8-9-9-11-11-12-12-8-8-9--8--5--4-|

SECTION 8
D|-------------------------------------------------------|
A|-------------------------------------------------------|
F|-------------------------------------------------------|
c|-2--0-2--0-2-5-0--0--------x-x-2--2--0-2-5-0--0--------|
G|-2--0-2--0-2-5-0--0--0-3-0-x-x-2--2--0-2-5-0--0--0-3-0-|
C|-2--0-2--0-2-5-0--0--0-3-0-x-x-2--2--0-2-5-0--0--0-3-0-|
                       . . .                       . . .

D|-----------------------------------------------------------------------|
A|-----------------------------------------------------------------------|
F|-----------------------------------------------------------------------|
c|-------2\--0-2-5-0--0----------2--2--0-2-5-3--3-xx---------------------|
G|-1-2-3-2\--0-2-5-0--0--003300--2--2--0-2-5-3--3-xx---------------------|
C|-1-2-3-2\--0-2-5-0--0--003300--2--2--0-2-5-3--3-xx6b7-0--0--xx3~-2-0-3-|
   . . .                 ......

D|-------------------------------------------------------|
A|-------------------------------------------------------|
F|-------------------------------------------------------|
c|-2--0-2--0-2-5-0--0--------x-x-2--2--0-2-5-0--0--------|
G|-2--0-2--0-2-5-0--0--0-3-0-x-x-2--2--0-2-5-0--0--0-3-0-|
C|-2--0-2--0-2-5-0--0--0-3-0-x-x-2--2--0-2-5-0--0--0-3-0-|
                       . . .                       . . .

D|--------------------------------------------------------------------------|
A|--------------------------------------------------------------------------|
F|--------------------------------------------------------------------------|
c|----------2--0-2-5-0--0----------2--2--0-2-5-3--3-xx--------------------2-|
G|-1--2--3--2--0-2-5-0--0--003300--2--2--0-2-5-3--3-xx----------xx3-2-0-3-2-|
C|-1--2--3--2--0-2-5-0--0--003300--2--2--0-2-5-3--3-xx6b7-0--0--xx3-2-0-3-2-|
   .  .  .                 ......                                 . . . .

This is a pretty fun song to jam along with. Hope it sounds good to you.
Section 2 is the only thing I have doubts about. Have fun.
Please rate & comment.
Thanks,
millarso

************************************

| /   slide up
| \   slide down
| h   hammer-on
| p   pull-off
| ~   vibrato
| +   harmonic
| x   Mute note
| b   Bend
| pb  Pre-bend
| br  Bend release
| pbr Pre-bend release
| brb Bend release bend

************************************
Tap to rate this tab
# A B C D E F G H I J K L M N O P Q R S T U V W X Y Z