Song name
# A B C D E F G H I J K L M N O P Q R S T U V W X Y Z

He Is Legend - Dont Touch That Dial tab

------------------------------------------
   Don't Touch That Dial - He Is Legend
------------------------------------------
Tabbed by: millarso (Jake Miller)
E-mail: millarso2.0@gmail.com

Tuning: Drop C
INTRO
Guitar 1 (let notes ring as much as possible)
D|------------------------------|
A|---3----------3--------3------|
F|--0-------3\5------3/5--------|
C|-0----------------------------|
G|------------------------------|
C|------------------------------|
||
Guitar 2
D|------------------------------|
A|---3----------3--------3-/6\3-|
F|--0-------3/5------3/5--------|
C|-0----------------------------|
G|------------------------------|
C|------------------------------|

SECTION 1
Guitar 1
D|-10---10---8---8---6---6--------------|
A|----8----8---8---8---8---8-10-11-10-8-|
F|--------------------------------------|
C|--------------------------------------|x8
G|--------------------------------------|
C|--------------------------------------|
||    .    .   .   .   .   .  .  .  . .
||
Guitar 2
D|------------------------------------------------------3------3------|
A|--------------------3------------------------6--------3------3------|
F|-5~----5~----5~-------3---5~----5~----5~-------3------0------0------|
C|------------------------0------------------------0-0--0------0------|x2
G|--------------------------------------------------------------------|
C|--------------------------------------------------------------------|

SECTION 2
Guitar 1 (Gtr 1 & 2 tremolo pick for almost the entire section)
D|---------|
A|-TP------|
F|-7-------|
C|---------|
G|---------|
C|---------|
||
Guitar 2
D|-TP------|
A|-8-------|
F|---------|
C|---------|
G|---------|
C|---------|
||
Extra Guitar
D|----------------------------------------------------------------------|
A|----------------------------------------------------------------------|
F|---------------------------------10-----------------------------------|
C|-10-10-10-10-10-10-10-10-8-8-8-8-10---5-5-5-5-5-5-5-5-7-7-7-7-7-7-7-7-|x3
G|-10-10-10-10-10-10-10-10-8-8-8-8--8---5-5-5-5-5-5-5-5-8-8-8-8-8-8-8-8-|
C|-10-10-10-10-10-10-10-10-8-8-8-8------5-5-5-5-5-5-5-5-7-7-7-7-7-7-7-7-|
    .  .  .  .  .  .  .  . . . . .      . . . . . . . . . . . . . . . .

Guitar 1
D|---------|
A|-TP------|
F|-7-------|
C|---------|
G|---------|
C|---------|
||
Guitar 2
D|-TP------|
A|-8-------|
F|---------|
C|---------|
G|---------|
C|---------|
||
Extra Guitar
D|-------------------------------|
A|-------------------------------|
F|-------------------------------|
C|-10-10-10-10-10-10-11-12\--3---|
G|-10-10-10-10-10-10-11-12\--3---|
C|-10-10-10-10-10-10-11-12\--3---|
    .  .  .  .  .  .  .

Both Guitars (accent on marked notes)
D|-----------------------------|
A|-----------------------------|
F|-^---^-----^-----^---^---^---|
C|-5-5-5-5-5-5-5-5-5-5-5-5-5---|
G|-5-5-5-5-5-5-5-5-5-5-5-5-5---|
C|-5-5-5-5-5-5-5-5-5-5-5-5-5---|

SECTION 3
Guitar 1
D|----------------------------------|
A|----------------------------------|
F|-3-3-3-101010-5-5-5-7-7-7-7/8\7\5-|
C|-x-x-x--x-x-x-x-x-x-x-x-x-x-------|x4
G|-1-1-1--8-8-8-3-3-3-5-5-5-5/6\5\3-|
C|----------------------------------|
||
Guitar 2
D|---------------------------------------|
A|---------------------------------------|
F|---------------------------------------|
C|-5-5-5-10-10-10-8-8-8-12-12-12-8-8-7-8-|x4
G|-5-5-5-10-10-10-8-8-8-12-12-12-8-8-7-8-|
C|-5-5-5-10-10-10-8-8-8-12-12-12-8-8-7-8-|

TRANSITION (lot of tracks doing stuff here, might have mixed them together)
Guitar 1
D|---------------------|
A|---------------------|
F|-/7~--------10b12~---|
C|------------10-------|
G|---------------------|
C|---------------------|
||
Guitar 2
D|---------------------|
A|---------------------|
F|---------------------|
C|--5---------7--------|
G|--5---------8--------|
C|--5---------7--------|

REPEAT SECTION 1

REPEAT SECTION 2

REPEAT SECTION 3

SECTION 4 (almost identical to SECTION 3)
Both Guitars
D|------------------------------------|
A|------------------------------------|
F|------------------------------------|
C|-5-5-5-10-10-10-8-8-8-0-0-0-8-8-7-8-|x3
G|-5-5-5-10-10-10-8-8-8-0-0-0-8-8-7-8-|
C|-5-5-5-10-10-10-8-8-8-0-0-0-8-8-7-8-|

D|----------------------------------|
A|----------------------------------|
F|----------------------------10----|
C|-5-5-5-10-10-10-8-8-8-0-0-0-10-10-|
G|-5-5-5-10-10-10-8-8-8-0-0-0--8-10-|
C|-5-5-5-10-10-10-8-8-8-0-0-0----10-|
                        . . .

SECTION 5 (A lot of Guitars, tough to hear them all right)
Guitar 1
D|--------------------------------------------------|
A|-------------5---5-6-5-6-6b8r6-5-6~---666-5-------|
F|-/6~---666-7---7----------------------------------|
C|--------------------------------------------/8-7~-|x3
G|--------------------------------------------------|
C|--------------------------------------------------|
||
Guitar 2
D|------------9----9-10-9-10-12b13r13-9-10~---101010-9--------|
A|-/10~----11---11-------------------------------------11-10~-|
F|------------------------------------------------------------|
C|------------------------------------------------------------|x3
G|------------------------------------------------------------|
C|------------------------------------------------------------|
|| 
Extra Guitar 1
D|-------------3---3-5-3-5-5b6r5-3-5~---555-3-------|
A|-/5~---555-6---6----------------------------------|
F|--------------------------------------------/7-5~-|
C|--------------------------------------------------|x3
G|--------------------------------------------------|
C|--------------------------------------------------|
||
Extra Guitar 2
D|--------------------------------------------------------------|
A|--------------------------------------------------------------|
F|--------------------------------------------------------------|
C|-7-----7---7---7---7---7---------8---8---8-----3--------5-3---|x3
G|-7---7-7-7-7-7-7-7-7-7-7-7-7-5-7-8-8-8-8-8-7-5-3--3-3-3-5-3-5-|
C|-7---7-7-7-7-7-7-7-7-7-7-7-7-5-7-8-8-8-8-8-7-5-3--3-3-3-5-3-5-|
       .   .   .   .   .   . . . .   .   .   . .    . . .     .

Guitar 1
D|--------------------------------------------------|
A|-------------5---5-6-5-6-6b8r6-5-6~---666-5-------|
F|-/6~---666-7---7----------------------------------|
C|--------------------------------------------/8-7~-|
G|--------------------------------------------------|
C|--------------------------------------------------|
||
Guitar 2
D|------------9----9-10-9-10-12b13r13-9-11b12.5--15-12p10p9---------------|
A|-/10~----11---11-----------------------------------------11p10~---------|
F|----------------------------------------------------------------12*brbr-|
C|------------------------------------------------------------------------|
G|------------------------------------------------------------------------|
C|------------------------------------------------------------------------|
|| 
Extra Guitar 1
D|-------------3---3-5-3-5-5b6r5-3-5~---555-3-------|
A|-/5~---555-6---6----------------------------------|
F|--------------------------------------------/7-5~-|
C|--------------------------------------------------|
G|--------------------------------------------------|
C|--------------------------------------------------|
||
Extra Guitar 2
D|--------------------------------------------------------------|
A|--------------------------------------------------------------|
F|--------------------------------------------------------------|
C|-7-----7---7---7---7---7---------8---8---8-----3--------5-3---|
G|-7---7-7-7-7-7-7-7-7-7-7-7-7-5-7-8-8-8-8-8-7-5-3--3-3-3-5-3-5-|
C|-7---7-7-7-7-7-7-7-7-7-7-7-7-5-7-8-8-8-8-8-7-5-3--3-3-3-5-3-5-|
       .   .   .   .   .   . . . .   .   .   . .    . . .     .

TRANSITION
Guitar 1
D|-------------------------------|
A|-------------------------------|
F|------------------10-----------|
C|-5----------7-6-7-10-----------|
G|-5--4--/5~--5-4-5--8---------8-|
C|-5---------------------11*br-8-|
              . . .            .
SECTION 6
Both Guitars
D|--------------------------------------------|
A|--------------------------------------------|
F|-----------10---------------------10-11-12\-|
C|-5---7-6-7-10-----------5---7-6-7-10-11-12\-|x2
G|-5---5-4-5--8---------8-5---5-4-5--8--9-10\-|
C|-5--------------11*br-8-5-------------------|
       . . .            .     . . .

Guitar 1
D|--------------------------------------------|
A|--------------------------------------------|
F|-----------10---------------------10-11-12\-|
C|-5---7-6-7-10-----------5---7-6-7-10-11-12\-|x2
G|-5---5-4-5--8---------8-5---5-4-5--8--9-10\-|
C|-5--------------11*br-8-5-------------------|
||     . . .            .     . . .
||
Guitar 2
D|--------------------------------------------|
A|--------------------------------------------|
F|-----------10---------------------10-11-12\-|
C|-----7-6-7-10-----------5---7-6-7-10-11-12\-|x2
G|-3~--5-4-5--8---------8-5---5-4-5--8--9-10\-|
C|----------------11*br-8-5-------------------|
       . . .            .     . . .

TRANSITION (play the 8 in parentheses first time only)
Either Guitar (fuzzy)
D|--------------------------------------|
A|--------------------------------------|
F|--------------------------------------|
C|-5-5-5-10-10-10-8-8-8-0-0-0-8-8-7-(8)-|x2
G|-5-5-5-10-10-10-8-8-8-0-0-0-8-8-7-(8)-|
C|-5-5-5-10-10-10-8-8-8-0-0-0-8-8-7-(8)-|

Both Guitars
D|------------------------------------|
A|------------------------------------|
F|------------------------------------|
C|-5-5-5-10-10-10-8-8-8-0-0-0-8-8-7-8-|x4
G|-5-5-5-10-10-10-8-8-8-0-0-0-8-8-7-8-|
C|-5-5-5-10-10-10-8-8-8-0-0-0-8-8-7-8-|

OUTRO
Both Guitars
D|-----------------------------------|
A|-----------------------------------|
F|-----------------------------------|
C|-----------------------------------|
G|---8-7-----8---12-10---------------|
C|-5-----8-5---8-------0-3-0-8-8-7-7-|
   . . . . . . .  .  . . . .

There are a lot of guitar parts woven and layered together in this song.
Hopefully, I got it to sound right after picking them apart.
Enjoy.
Please rate & comment.
Thanks,
millarso

************************************

| /   slide up
| \   slide down
| h   hammer-on
| p   pull-off
| ~   vibrato
| *   pinch harmonic
| x   Mute note
| b   bend
| br  Bend release
| brb Bend release bend

************************************
Tap to rate this tab
 
# A B C D E F G H I J K L M N O P Q R S T U V W X Y Z