Song name
# A B C D E F G H I J K L M N O P Q R S T U V W X Y Z

He Is Legend - Everyone I Know Has Fangs tab

---------------------------------------------
  Everyone I Know Has Fangs - He Is Legend
---------------------------------------------
Tabbed by: millarso (Jake Miller)
E-mail: millarso2.0@gmail.com

Tuning: Drop C

SECTION 1
Guitar 1 (maybe both?)
D|------------------------------------------------------------------|
A|---------9b10r9---------10b11-10---------9b10r9-------------------|
F|-10~---9--------10-9~------------10~---9--------10-9~------10~----|
C|------------------------------------------------------12-------11-|x2
G|------------------------------------------------------------------|
C|------------------------------------------------------------------|

SECTION 2
Guitar 2
D|---------------------------|
A|---------------------------|
F|---------------------------|
C|---7-6-----7-6-----7-6-----|
G|-------------------------8-|
C|-0-----0-0-----0-0-----0---|

SECTION 3
Guitar 1 (Left Stereo)
D|---------------------------------------------------------|
A|---------------------------------------------------------|
F|------------------------------9--9-9-9-910---------------|
C|-12-1212121210--7--7-7-7-7-8--x--x-x-x-x-x--9--9-9-9-910-|
G|--x--x-x-x-x-x--x--x-x-x-x-x--7--7-7-7-7-8--x--x-x-x-x-x-|
C|-12-1212121210--7--7-7-7-7-8----------------9--9-9-9-910-|
||
Guitar 2 (Right Stereo)
D|---------------------------------------------------------|
A|---------------------------------------------------------|
F|------------------------------5--5-5-5-5-7---------------|
C|-8--8-8-8-8-10--3--3-3-3-3-5--5--5-5-5-5-7--5--5-5-5-5-7-|
G|-8--8-8-8-8-10--3--3-3-3-3-5--3--3-3-3-3-5--5--5-5-5-5-7-|
C|-8--8-8-8-8-10--3--3-3-3-3-5----------------5--5-5-5-5-7-|

Guitar 1
D|---------------------------------------------------------|
A|---------------------------------------------------------|
F|------------------------------9--9-9-9-910---------------|
C|-12-1212121210--7--7-7-7-7-8--x--x-x-x-x-x--9--9--9--910-|
G|--x--x-x-x-x-x--x--x-x-x-x-x--7--7-7-7-7-8--x--x--x--x-x-|
C|-12-1212121210--7--7-7-7-7-8----------------9--9--9--910-|
||
Guitar 2
D|---------------------------------------------------------|
A|---------------------------------------------------------|
F|------------------------------5--5-5-5-5-7---------------|
C|-8--8-8-8-8-10--3--3-3-3-3-5--5--5-5-5-5-7--5--5--5--5-7-|
G|-8--8-8-8-8-10--3--3-3-3-3-5--3--3-3-3-3-5--5--5--5--5-7-|
C|-8--8-8-8-8-10--3--3-3-3-3-5----------------5--5--5--5-7-|

Guitar 1
D|---------------------------------------------------------|
A|---------------------------------------------------------|
F|------------------------------9--9-9-9-910---------------|
C|-12-1212121210--7--7-7-7-7-8--x--x-x-x-x-x--9--9-9-9-910-|
G|--x--x-x-x-x-x--x--x-x-x-x-x--7--7-7-7-7-8--x--x-x-x-x-x-|
C|-12-1212121210--7--7-7-7-7-8----------------9--9-9-9-910-|
||
Guitar 2
D|---------------------------------------------------------|
A|---------------------------------------------------------|
F|------------------------------5--5-5-5-5-7---------------|
C|-8--8-8-8-8-10--3--3-3-3-3-5--5--5-5-5-5-7--5--5-5-5-5-7-|
G|-8--8-8-8-8-10--3--3-3-3-3-5--3--3-3-3-3-5--5--5-5-5-5-7-|
C|-8--8-8-8-8-10--3--3-3-3-3-5----------------5--5-5-5-5-7-|

Guitar 1
D|----------------------------------------------------------------------|
A|----------------------------------------------------------------------|
F|----------------------------------------------------------------------|
C|-12-1212121210--7--7-7-7-7-8--7-7-7-7-7-7-7-7-11-11-11-11-11-11-11-11-|
G|--x--x-x-x-x-x--x--x-x-x-x-x--7-7-7-7-7-7-7-7-11-11-11-11-11-11-11-11-|
C|-12-1212121210--7--7-7-7-7-8--7-7-7-7-7-7-7-7-11-11-11-11-11-11-11-11-|
||
Guitar 2
D|----------------------------------------------------------------------|
A|----------------------------------------------------------------------|
F|------------------------------6-6-6-6-6-6-6-6-10-10-10-10-10-10-10-10-|
C|-8--8-8-8-8-10--3--3-3-3-3-5--x-x-x-x-x-x-x-x--x--x--x--x--x--x--x--x-|
G|-8--8-8-8-8-10--3--3-3-3-3-5--4-4-4-4-4-4-4-4--8--8--8--8--8--8--8--8-|
C|-8--8-8-8-8-10--3--3-3-3-3-5------------------------------------------|

REPEAT SECTION 2

SECTION 4
Guitar 1
D|------------------------------------------------------------------|
A|---------9b10r9---------10b11-10---------9b10r9-------------------|
F|-10~---9--------10-9~------------10~---9--------10-9~------10~----|
C|------------------------------------------------------12-------11-|
G|------------------------------------------------------------------|
C|------------------------------------------------------------------|

Guitar 1
D|------------------------------------------------------------------|
A|---------9b10r9---------10b11-10---------9b10r9-------------------|
F|-10~---9--------10-9~------------10~---9--------10-9~------10~----|
C|------------------------------------------------------12-------11-|
G|------------------------------------------------------------------|
C|------------------------------------------------------------------|
||
Guitar 2 (tremolo picking possibly, some delay)
D|-----------------------------------------------------------|
A|-12~------12b13--12~------10--12~------12b13--12~----9~----|
F|-----------------------------------------------------------|
C|-----------------------------------------------------------|
G|-----------------------------------------------------------|
C|-----------------------------------------------------------|

REPEAT SECTION 2

SECTION 5
Both Guitars
D|---------------------------------------------------------------------|
A|---------------------------------------------------------------------|
F|---------------------------------------------------------------------|
C|---------------------------------------------------------------------|
G|---------------------------------------------------------------------|
C|-0-0-0-0-0-0-0-0-0-7-6-0-7-6-0-9b10--0-0-0-0-0-0-0-0-7-6-0-7-6-0-2b3-|

D|----------------------------------------------------|
A|----------------------------------------------------|
F|----------------------------------------------------|
C|----------------------------------------------------|
G|----------------------------------------------------|
C|-0-0-0-0-0-0-0-0-7-6-0-7-6-0-3--2-3-6--3-6-9--6-9-6-|

SECTION 6
Both Guitars
D|-----------------------------------------------------------------------|
A|-----------------------------------------------------------------------|
F|-----------------------------------------------------------------------|
C|-----------------------------------------------------------------------|
G|-----0---0---0---0-------0-----0-------0---0---0---0-------0-----0-----|
C|-0---0-0-0-0-0-0-0-0-7-6-0-7-6-0-9b10--0-0-0-0-0-0-0-0-7-6-0-7-6-0-2b3-|
       .   .   .   .       .     .       .   .   .   .       .     .
D|-------------------------------------------------------|
A|-------------------------------------------------------|
F|-------------------------------------------------------|
C|-------------------------------------------------------|
G|-0---0---0---0-------0-----0---------------------------|
C|-0-0-0-0-0-0-0-0-7-6-0-7-6-0-3--2-3-6--3-6-9--6-9-6-10-|
   .   .   .   .       .     .

REPEAT SECTION 3

SECTION 7
Guitar 1 (tremolo picking, delay added)
D|------------------------------------------------------|
A|------------------------------------------------------|
F|------------------------------------------------------|
C|-12------12b13--12------10--12------12b13--12----9----|
G|------------------------------------------------------|
C|------------------------------------------------------|

Guitar 1 (tremolo picking, delay added)
D|------------------------------------------------------|
A|------------------------------------------------------|
F|------------------------------------------------------|
C|-12------12b13--12------10--12------12b13--12----9----|
G|------------------------------------------------------|
C|------------------------------------------------------|
||
Guitar 2 (tremolo picking, delay added)
D|------------------------------------------------------|
A|------------------------------------------------------|
F|----------------------------10------10b11--10----7----|
C|------------------------------------------------------|
G|------------------------------------------------------|
C|------------------------------------------------------|

Guitar 1 (tremolo picking, delay added)
D|------------------------------------------------------|
A|------------------------------------------------------|
F|------------------------------------------------------|
C|-12------12b13--12------10--12------12b13--12----9----|
G|------------------------------------------------------|
C|------------------------------------------------------|
||
Guitar 2 (tremolo picking, delay added)
D|------------------------------------------------------|
A|------------------------------------------------------|
F|-10------10b11--10-------8--10------10b11--10----7----|
C|------------------------------------------------------|
G|------------------------------------------------------|
C|------------------------------------------------------|

SECTION 8
Both Guitars
D|-------------------------------------------------------------------------------------------|
A|-------------------------------------------------------------------------------------------|
F|-7------------------8--8--8-10\7-7-------7-------7-------7-----------------------8-8-8-8-8-|
C|-7------5--5--5--7--8--8--8-10\7-7-------7-------7-------7-------5-5-5-5-5-5-7-7-8-8-8-8-8-|
G|-5------5--5--5--7--6--6--6--8\5-5-0-0-0-5-0-0-0-5-0-0-0-5-0-0-0-5-5-5-5-5-5-7-7-6-6-6-6-6-|
C|--------5--5--5--7-----------------0-0-0---0-0-0---0-0-0---0-0-0-5-5-5-5-5-5-7-7-----------|
                                     . . .   . . .   . . .   . . .

SECTION 9
Both Guitars
D|---------------------------------------------------------------------|
A|---------------------------------------------------------------------|
F|---------------------------------------------------------------------|
C|---------------------------------------------------------------------|
G|---------------------------------------------------------------------|
C|-0-0-0-0-0-0-0-0-0-7-6-0-7-6-0-9b10--0-0-0-0-0-0-0-0-7-6-0-7-6-0-2b3-|

D|-------------------------------------------------------|
A|-------------------------------------------------------|
F|-------------------------------------------------------|
C|-------------------------------------------------------|
G|-0-0-0-0-0-0-0-0-----0-----0---------------------------|
C|-0-0-0-0-0-0-0-0-7-6-0-7-6-0-3--2-3-6--3-6-9--6-9-6-10-|
   . . . . . . . .     .     .

SECTION 10 (listen to the track, pretty easy)
D|------------------|
A|------------------|
F|------------------|
C|------------------|x2
G|------------------|
C|-0-(x56)--0---0---|

This should be pretty close. Fun little song, and fairly easy too.
Hope you enjoy.
Please rate & comment.
Thanks,
millarso

************************************

| /   slide up
| \   slide down
| h   hammer-on
| p   pull-off
| ~   vibrato
| +   harmonic
| x   Mute note
| b   Bend
| pb  Pre-bend
| br  Bend release
| pbr Pre-bend release
| brb Bend release bend

************************************
Tap to rate this tab
# A B C D E F G H I J K L M N O P Q R S T U V W X Y Z