Song name
# A B C D E F G H I J K L M N O P Q R S T U V W X Y Z

He Is Legend - Martini tab

Artist: He Is Legend
Album: 90125 EP
Song: Martini
Track:5

 Bm7*             C/B5            Bm           
e-----------------------------------------------------| x2
b-----------------------------------------------------|
g---------------------------------7-7-7---------------|
d-7---(let ring)--5---(let ring)--5-5-5---(let ring)--|
a-x-x-x-x-x-x-x-x-x-x-x-x-x-x-x-x-x-x-x-x-x-x-x-x-x-x-|
e-7-7-7-7-7-7-7-7-7-7-7-7-7-7-7-7-7-7-7-7-7-7-7-7-7-7-|

 Bm7              C/B5            Bm              B5
e-----------------------------------------------------------------|
b-----------------------------------------------------------------|
g-----------------------------------------------------------------|
d-7---(let ring)--5---(let ring)--4---(let ring)------------------|
a-x-x-x-x-x-x-x-x-x-x-x-x-x-x-x-x-x-x-x-x-x-x-x-x-5---(let ring)--|
e-7-7-7-7-7-7-7-7-7-7-7-7-7-7-7-7-7-7-7-7-7-7-7-7-7-7-7-7-7-7-7-7-|

*Note: Because these are not complete chords, the tones sounded
imply the chords written, and I'm not 100% sure that they are correct.
Tap to rate this tab
# A B C D E F G H I J K L M N O P Q R S T U V W X Y Z