Song name
# A B C D E F G H I J K L M N O P Q R S T U V W X Y Z

He Is Legend - Creature Walks tab

HE IS LEGEND
THE CREATURE WALKS

intro/verse
|------------------------------------|
|----12-----12-----12----------------|
|--10--10-10--10-10--10-9-11--11-----|
|-9------9------9-----------10-------|
|------------------------------------|
|------------------------------------|


pre chorus
|-----------------------|
|-----------------------|
|-7777------------------|
|-7777-0~--7p07p07p0----|
|-5555-0~---------------|
|------0~---------------|

chorus	   x2		           third time, then repeat first part
|-----------------------------------|----------------------|
|-------------------10p9-10p9-10p9--|-12-12-13-13-12-10----|
|-9-11b-9-11b-9-11b-----------------|----------------------|
|-----------------------------------|----------------------|
|-----------------------------------|----------------------|
|-----------------------------------|----------------------|


intro/verse
pre chorus
chorus


1:48
|-------<5>-------<5>-------<5>--------|
|-------<5>-------<5>-------<5>--------|
|-------<5>-------<5>-------<5>--------|
|-4-2-4------4-2-4-----4-2-4----44-0---|
|-4-2-4------4-2-4-----4-2-4----44-0---|
|-4-2-4------4-2-4-----4-2-4----44-0---|


1:57
|-------------|------------------|
|-10-9--10-12-|-10--9------------|
|-11-10-9--9--|-11-10--7p4-6-7---|
|-------------|------------------|
|-------------|------------------|
|-------------|------------------|

2:29
|------------------|
|------------------|
|------------------|
|------------------|
|-0h5h8-7h8h10-12--|
|------------------|


dont really know whats going on from 2:30-2:43. here's an attempt
|----------------------------|--------------------|------------|
|----------------------------|--------------------|-14-11------|
|----------------------------|--------6-7-9-7-6-5-|-------14---|
|--------0--------2--------0-|-7-8-10-------------|----------0-|
|-11p8\\-0-11p8\\-2-11p8\\-0-|--------------------|----------0-|
|--------0--------2--------0-|--------------------|----------0-|
			       . .  .


2:44
|----------------------|
|----------------------|
|----------------------|
|-7p0-7p0-7p0-7--4-2-4-|
|----------------4-2-4-|
|----------------4-2-4-|


chorus


3:18
|-----------|------|----------------|------------|
|-----------|------|----------------|------------|
|-----------|------|--14-13-14------|------------|
|-4-2-4-000-|-44-0-|-----------000--|-44-0-4-2-4-|
|-4-2-4-000-|-44-0-|--12-11-12-000--|-44-0-4-2-4-|
|-4-2-4-000-|-44-0-|-----------000--|-44-0-4-2-4-|
	...                    ...


  

Tap to rate this tab
 
# A B C D E F G H I J K L M N O P Q R S T U V W X Y Z