Song name
# A B C D E F G H I J K L M N O P Q R S T U V W X Y Z

He Is Legend - Electronic Throat tab

He Is Legend
Electronic Throat
Suck Out The Poison

awesome song. awesome band. blah blah blah. heres the tab.

Drop C

b bend
~ let ring
. palm mute
h hammer on
p pull off
^ pinch harmonic

|---------------------------------------------------------------|
|---10---------------------------10-----------------------------|
|-9b~~~9b-7--------------7b~---9b~~~9b-7------------------------|
|-----------10-7-10-7-10-----------------10-7-10-7--------------|
|--------------------------------------------------10-8-8h10p8--|
|---------------------------00----------------------------------|
               .    .                       .    .  . .

|---------------------------------------------------------------|
|---10---------------------------10-----------------------------|
|-9b~~~9b-7--------------7^~---9b~~~9b-7------------------------|
|-----------10-7-10-7-10-----------------10-7-10-7--------------|
|--------------------------------------------------10-8-8h10p8--|
|---------------------------00----------------------------------|
               .    .                       .    .  . .
|-------------------------------|
|-------------------------------|
|-------------------------------|
|-0-----------------------------|
|-0--0-0-0-0-0-0-0-0-0-0-0-0-0--|
|-0--0-0-0-0-0-0-0-0-0-0-0-0-0--|
     . . . . . . . . . . . . . 

|-------------------------------------------------------------------------|
|-------------------------------------------------------------------------|
|-------------------------------------------------------------------------|
|-0-----3/5----3------0-----3/5----3------0-----3/5----3------------------|
|-0--00-3/5-00-3-0000-0--00-3/5-00-3-0000-0--00-3/5-00-3-0000-------------|
|-0--00-3/5-00-3-0000-0--00-3/5-00-3-0000-0--00-3/5-00-3-0000-3-5-3-6-5-3-|
     ..     ..   ....    ..     ..   ....    ..     ..   ....
 
|----------------------------------------------|------------|
|----------------------------------------------|------------|1st ending 
|----------------------------------------------|------------|
|-0----5---3-----0----5---3-----0----5---3-----|------------|
|-0--0-5-0-3-0-0-0--0-5-0-3-0-0-0--0-5-0-3-0-0-|------------|
|-0--0-5-0-3-0-0-0--0-5-0-3-0-0-0--0-5-0-3-0-0-|3-5-6-7-5-3-|
     .   .   . .    .   .   . .    .   .   . . 

|----------------------------|
|----------------------------|2nd ending 
|----------------------------|
|----------------------------|
|--------------------3---3-5-|
|-3-5-6-7-6-5-5--6-7---7-----|
                       .

|---------------------------------------------|
|---------------------------------------------|
|---------------------------------------------|
|-0-0---0---6-6---6---5-5---5---5-5-----------|
|-0-0-0-0-0-6-6-6-6-6-5-5-5-5-5-3-3--------5b~|
|-0-0-0-0-0-6-6-6-6-6-5-5-5-5-5------6-5-3----|
      .   .     .   .     .   .

theres a part thats played behind this but i cant here it good enough to 
figure it out. if you know it. please help me out a little.

play the intro again

|--------------------------------------|
|--------------------------------------|you can figure out when the palm 
|--------------------------------------|mutes are
|-0-------5----6----0-------5----6-----|
|-0-------3----6----0-------3----6-----|
|-0------------6----0------------6-----|

|----------------------------|--------|
|----------------------------|--------|
|----------------------------|--------|1st ending
|----------------------------|--------|
|----------------------------|--------|
|-0-0-00--00-0-00--00-0-0000-|6-5-3-0-|
  . . ..  .. . ..  .. . ....

|-----------|
|-----------|
|-----------|2nd ending
|-----------|
|-------5~--|
|-6-5-3-----|


well there you go. you can put everything in order when you play it.

please correct me if ive made any mistakes

if you have any questions, ask me on AIM! JonIsBeast87

PLEASE RATE!!!
Tap to rate this tab
# A B C D E F G H I J K L M N O P Q R S T U V W X Y Z