Song name
# A B C D E F G H I J K L M N O P Q R S T U V W X Y Z

He Is Legend - Hip-hop Anonymous tab

By: Keith Hamilton - Smith
***LISTEN FOR TIMING***


Intro
|1--1------------------------1--1---------------------------|
|3--3------------------------3--3---------------------------|
|5--5------------------------5--5---------------------------|  x2
|-----------------------------------------------------------|
|-----------------------------------------------------------|
|----0-0-0-0-0-0-0-0-0-0-0-0------0-0-0-0-0-0-0-0-3-5-6-0---|

Course
|1--1------------------------1--1---------------------------|
|3--3------------------------3--3---------------------------|
|5--5------------------------5--5---------------------------|  x4
|-----------------------------------------------------------|
|-----------------------------------------------------------|
|----0-0-0-0-0-0-0-0-0-0-0-0------0-0-0-0-0-0-0-0-3-5-6-0---|

Breakdown
|1--1------------------------1--1------------------------|
|3--3------------------------3--3------------------------|
|5--5------------------------5--5------------------------|
|----1-1-1-1-1-1-1-1-1-1-1-1------0---0---0---0---0---0--|
|----1-1-1-1-1-1-1-1-1-1-1-1------0---0---0---0---0---0--|
|----1-1-1-1-1-1-1-1-1-1-1-1------0---0---0---0---0---0--|

|1--1------------------------1--1-------------------------|
|3--3------------------------3--3-------------------------|
|5--5------------------------5--5-------------------------|
|----1-1-1-1-1-1-1-1-1-1-1-1------0-0-0-0-0-0-0-0-3-5-6-0-|
|----1-1-1-1-1-1-1-1-1-1-1-1------0-0-0-0-0-0-0-0-3-5-6-0-|
|----1-1-1-1-1-1-1-1-1-1-1-1------0-0-0-0-0-0-0-0-3-5-6-0-|

Pre-Chorus
|1--1------------------------1--1------------------------|
|3--3------------------------3--3------------------------|
|5--5------------------------5--5------------------------|
|-----0>>12p0---------------------0>>12p0----------------|
|-----0>>12p0---------------------0>>12p0----------------|
|-----0>>12p0---------------------0>>12p0----------------|

|1--1------------------------1--1------------------------|
|3--3------------------------3--3------------------------|
|5--5------------------------5--5------------------------|
|-----0>>12p0--------------------------------------------|
|-----0>>12p0--------------------------------------------|
|-----0>>12p0--------------------0-0-0-0-0-0-0-0-0-0-0-0-|

Course
|1------------------------1--1-------------------------|
|3------------------------3--3-------------------------|
|5------------------------5--5-------------------------|
|------------------------------------------------------|
|------------------------------------------------------|
|-0-0-0-0-0-0-0-0-0-0-0-0------0-0-0-0-0-0-0-0-3-5-6-0-|

|1--1------------------------1--1-------------------------|
|3--3------------------------3--3-------------------------|
|5--5------------------------5--5-------------------------|
|---------------------------------------------------------|
|---------------------------------------------------------|
|----0-0-0-0-0-0-0-0-0-0-0-0------0-0-0-0-0-0-0-0-3-5-6-0-|

|1--1--|
|3--3--|
|5--5--|
|------|
|------|
|------|
Tap to rate this tab
# A B C D E F G H I J K L M N O P Q R S T U V W X Y Z