He Is We - Lovey Love tab

Band: He Is We
Song: Lovey Love
Album: Live From The Purevolume House
Tabbed By: Matt Florio; www.myspace.com/mattflorio2
Email: Shempashland@yahoo.com


This is a tab for a wonderful band called He Is We.
It is very close to accurate but if you feel the need
to contact me please do!
If you are interested in this type of music please check 
out my band www.myspace.com/gardensetfire
Enjoy!


Drop D Tuning

Verse
e|---------------------------|
b|---------------------------|
g|---9--9--9--9-2--2--2--2---|
d|---9--9--9--9-2--2--2--2---|
a|---7--7--7--7-0--0--0--0---|
d|---------------------------|
"Today, Is The Day..."
*Palm Mute the chords lighting when you strum

Pre Chorus
e|---0/0--0--0--0---|
b|---0/0--0--0--0---|
g|---4/6--9--9--8---|
d|---4/6--9--9--9---|
a|---2/4--7--0--x---|
d|--------------9---|
"I don't mind the ride.."


Chorus
e|---0000--0000--0000--0--0----|
b|---5555--0000--0000--0--0----|
g|---4444--4444--2222--6--4----|
d|---2222--4444--2222--6--4----|
a|---2222--2222--0000--4--2----|
d|---2222----------------------|
"You keep saying dont worry..."

Bridge
e|---0000--0000--0000--0--0----|
b|---5555--0000--0000--0--0----|
g|---4444--4444--2222--6--4----|
d|---2222--4444--2222--6--4----|
a|---2222--2222--0000--4--2----|
d|---2222----------------------|
"do do ..de de.."

Part 2 of the Bridge
e|---0/0--0--0--0---|
b|---0/0--0--0--0---|
g|---4/6--9--9--8---|
d|---4/6--9--9--9---|
a|---2/4--7--0--x---|
d|--------------9---|
"No more sad songs..."

Then 
Chorus till End
Tap to rate this tab
 
# A B C D E F G H I J K L M N O P Q R S T U V W X Y Z