Guitaretab - guitar tabs
Song name
# A B C D E F G H I J K L M N O P Q R S T U V W X Y Z

Head Automatica - Curious tab

                         |-----------------------------|
                         | Band   | Head Automatica    |
                         | Song   | Curious            |
                         | Album  | Popaganda          |
                         | Tabber | Lackofcolor        |
                         |-----------------------------|

[ Tab from: http://www.guitaretab.com/h/head-automatica/158648.html ]
 
             
e|-------------|--------------------------------------------------------------|
B|-------------|--------------------------------------------------------------|
G|----------5~-|---------7---------------5---------------7--------------------|
D|--------75~-|-5-------7-------7-------5-------5-------7------7------------5| 
A|--------73~-|-5-------5--0-5--7-------3--0-3--5-------5--0-5-7--------5-7--|
E|-15\----5----|-3--0-3----------5--0-5----------3--0-3---------5--0-5-7------|
Related for Curious tab