Song name
# A B C D E F G H I J K L M N O P Q R S T U V W X Y Z

Head Automatica - Razor tab

Song: The Razor
Artist: Head Automatica
Tabbed by REAPER798

E Standard

KEY:
h - hammer-on
p - pull-off
s - slide to
t - 10
w - 12
~ - let ring
. - palm mute
() - Alternative

VERSE
e -------(7)------------|
B -5-----(7)------------|
G -7------7-----------o-|
D -7-(4x)-7-(4x)------o-|        
A ----------------------|
E ----------------------|


(No guitar in PRE-CHORUS)


CHORUS
e -------------------------------|-------------------|
B -------------------------------|-------------------|
G -----------------------------o-|-------------------|
D -9-(8x)-5------7------2------o-|--7-------5--------|
A -9------5-(8x)-7-(8x)-2-(8x)---|--7-(16x)-5-(16x)--|
E -7------3------5------0--------|--5-------3--------|

CHORUS 2
e ------------------------|-------------------|
B ------------------------|-------------------|
G ----------------------o-|-------------------|
D -9-(8x)-7------5------o-|--5-------7--------|
A -9------7-(8x)-5-(16x)--|--5-(16x)-7-(16x)--|
E -7------5------3--------|--3-------5--------|

OUTRO
(Don't say we're healing when it's just not what we do)
e ----------------------------------------------------|
B ----------------------------------------------------|
G ----------------------------------------------------|
D -9~--5~--7~-----------------------------------------|
A -9~--5~--7~-----------------------------------------|
E -7~--3~--5~-----------------------------------------|

Got as much of it as I could.
Tap to rate this tab
# A B C D E F G H I J K L M N O P Q R S T U V W X Y Z