Song name
# A B C D E F G H I J K L M N O P Q R S T U V W X Y Z

Head Automatica - I Shot William H Macy tab

Follow along with the song for pauses and strumming patterns

|---------------------------------------|
|---------------------------------------|
|---------------------------------------|
|---12-10-12-10-12-10-12-15-12-10-------|
|---12-10-12-10-12-10-12-15-12-10----x4-| Intro
|---10--8-10--8-10--8-10-13-10--8-------|

|------------------------------------------------------------|
|------------------------------------------------------------|
|------12-12-10-10-15-14-15-14------12-12-10-10-15-14--------|
|---12-12-12-10-10-15-14-15-14---12-12-12-10-10-15-14---x2---|  Verse
|---12-10-10--8--8-13-12-13-12---12-10-10--8--8-13-12--------|
|---10---------------------------10--------------------------|

|-----------------------------------------------------------|
|-----------------------------------------------------------|
|-------------------10-------12-12-12-12-12-12-15-15-15-----|  Chorus
|-10-10-10-10-10-10-10-10-12-12-12-12-12-12-12-15-15-15--x2-|
|-10-10-10-10-10-10--8-10-12-10-10-10-10-10-10-13-13-13-----|
|--8--8--8--8--8--8-----8-10--------------------------------|

|----------------|
|----------------|
|----------------|  Bridge / Outro
|-9-------8------|
|-9-x16---8-x16--|
|-7-------6------|
Tap to rate this tab
 
# A B C D E F G H I J K L M N O P Q R S T U V W X Y Z