Song name
# A B C D E F G H I J K L M N O P Q R S T U V W X Y Z

Head Automatica - Beating Heart Baby tab

Artist/Band - Head Automatica
Album - Decadence
Song - Beating Heart Baby

Tuning: Standard (E A D G B E)

Key:
x = Mute String


Intro: (Keyboard arranged for Guitar)
E]---------------------|
B]--11---11--------11--|
G]--11---10----9---11--|
D]---9----9----9----9--|
A]------------10-------|
E]---------------------|

Verse 1:
E]-------------------------------------------------------|
B]-------------------------------------------------------|
G]--5--5-5-55555--8--8-8-8888--5--5-5-55555--8--8--8--8--|
D]--5--5-5-55555--8--8-8-8888--5--5-5-55555--8--8--8--8--| x2
A]--3--3-3-33333--6--6-6-6666--3--3-3-33333--6--6--6--6--|
E]-------------------------------------------------------|

Chorus:
E]----------------------------------------------------------------------------|
B]----------------------------------------------------------------------------|
G]--------------------5555555555555555--3333333333333333----------------------|
D]--6666666666666666--5555555555555555--3333333333333333--55555555--55555555--| x2
A]--6666666666666666--3333333333333333--1111111111111111--55555555--55555555--|
E]--4444444444444444--------------------------------------33333333--22222222--|


Verse 2:
E]-------------------------------------------------------|
B]-------------------------------------------------------|
G]--5--5-5-55555--8--8-8-8888--5--5-5-55555--8--8--8--8--|
D]--5--5-5-55555--8--8-8-8888--5--5-5-55555--8--8--8--8--| x2
A]--3--3-3-33333--6--6-6-6666--3--3-3-33333--6--6--6--6--|
E]-------------------------------------------------------|


Chorus:
E]----------------------------------------------------------------------------|
B]----------------------------------------------------------------------------|
G]--------------------5555555555555555--3333333333333333----------------------|
D]--6666666666666666--5555555555555555--3333333333333333--55555555--55555555--| x2
A]--6666666666666666--3333333333333333--1111111111111111--55555555--55555555--|
E]--4444444444444444--------------------------------------33333333--22222222--|


Bridge:
E]---------------------------|
B]---------------------------|
G]--8--8--8--5---8--8--8--5--|
D]--8--7--8--7---8--7--8--7--|
A]--6--5--6--5---6--5--6--5--|
E]---------------------------|


Verse 3:
E]----------------------------------------|
B]----------------------------------------|
G]--5-5-xxx-x-xxx-xxx--8-8-xxx-x-xxx-xxx--|
D]--5-5-xxx-x-xxx-xxx--8-8-xxx-x-xxx-xxx--| x2
A]--3-3-xxx-x-xxx-xxx--6-6-xxx-x-xxx-xxx--|
E]----------------------------------------|


Outro Chorus:
E]----------------------------------------------------------------------------|
B]----------------------------------------------------------------------------|
G]--------------------5555555555555555--3333333333333333----------------------|
D]--6666666666666666--5555555555555555--3333333333333333--55555555--55555555--| x2
A]--6666666666666666--3333333333333333--1111111111111111--55555555--55555555--|
E]--4444444444444444--------------------------------------33333333--22222222--|
Tap to rate this tab
# A B C D E F G H I J K L M N O P Q R S T U V W X Y Z