Song name
# A B C D E F G H I J K L M N O P Q R S T U V W X Y Z

Head Automatica - Oxycotton tab

Intro:

e-------------------------------------------|
B----------1-1------------------------------|
G--------1-----3-1-0------------------------|
D--3---3-------------1----------------------|
A----3--------------------------------------|
E-------------------------------------------|


Fill:
e-----------8--------------------8----------|
B-------8-9------------------8-9------------|
G--8-10-------10--x3----8-10----------------|
D-------------------------------------------|
A-------------------------------------------|
E-------------------------------------------|
Tap to rate this tab
# A B C D E F G H I J K L M N O P Q R S T U V W X Y Z