Song name
# A B C D E F G H I J K L M N O P Q R S T U V W X Y Z

Head Automatica - Laughing At You tab

Artist: Head Automatica
  Song: Laughing At You
 Album: Pop Rocks-EP (Popaganda)
Tabber: LYNNNN (http://www.myspace.com/linty_fresh)

This is a very simple but catchy song off Head Automatica's brilliant
new album on Warner Brothers, called "POPAGANDA". Enjoy!

Standard Tuning

*NOTE*: There is a slide in the second verse, in the second row of
the VERSE portion, between the last chord in the first measure and
the first chord in the second measure. The slide occurs after the
words "You and who you know" and before "I'm talking shameless."

Also, I'm not sure this is how Craig plays it, since there is
more than way to play each power chord...meaning, you can always
change it up the way you think it makes more sense or is more
comfortable to play.


VERSE: (Welcoming you to Cardboard City)

e|--------|--------|--------|--------|
B|--------|--------|--------|--------|
G|7-------|-------4|4-------|--------|
D|5--77---|-4455--4|4--77---|-44--55-|
A|5--77---|-4455--2|2--77---|-44--55-|
E|---55---|-2233---|---55---|-22--33-|

e|--------|--------|--------|--------|
B|--------|--------|--------|--------|
G|777-----|-------4|4-------|--------|
D|77777---|-4455--4|4--77---|-44--55-|
A|55577---|-4455--2|2--77---|-44--55-|
E|---55---|-2233---|---55---|-22--33-|

PRE-CHORUS: (I'm feeling sorry for your band)

e|--------|--------|--------|--------|---------|
B|--------|--------|--------|--------|---------|
G|--------|--------|--------|--------|---------|
D|9--77--4|4--55---|7--77--4|44444444|77777777-|
A|9--77--4|4--55---|7--77--4|44444444|77777777-|
E|7--55--2|2--33---|9--55--2|22222222|55555555-|

CHORUS: (You don't got a clue)

e|--------|--------|--------|---------|
B|--------|--------|--------|---------|
G|--------|77777777|--------|---------|
D|99999999|77777777|7--77--7|7--77--7-|
A|99999999|55555555|7--77--7|7--77--7-|
E|77777777|--------|5--55--5|5--55--5-|

e|--------|--------|--------|---------|
B|--------|--------|--------|---------|
G|--------|77777777|--------|---------|
D|99999999|77777777|7--77--7|7--77777-|
A|99999999|55555555|7--77--7|7--77777-|
E|77777777|--------|5--55--5|5--50505-|


CHORUS ENDING 1

e|--------|--------|
B|--------|--------|
G|--------|--------|
D|22222222|55555555
A|22222222|55555555
E|00000000|33333333

2ND VERSE (Your following is fleeting)
PRE-CHORUS (Desperation is calling you)
CHORUS 2x

BRIDGE: (There are some things you gotta know)

e|--------|--------|--------|--------|
B|--------|--------|--------|--------|
G|--------|--------|--------|--------|
D|22222222|55555555|22222222|55555555
A|22222222|55555555|22222222|55555555
E|00000000|33333333|00000000|33333333

e|--------|--------|--------|--------|
B|--------|--------|--------|--------|
G|--------|--------|--------|--------|
D|22222222|55555555|22222222|55557777
A|22222222|55555555|22222222|55557777
E|00000000|33333333|00000000|33335555

CHORUS

CHORUS ENDING 2

e|--------|--------|--------|---------|
B|--------|--------|--------|---------|
G|--------|77777777|--------|---------|
D|9-7-9999|77777777|7--77--7|7--77--7-|
A|9-7-9999|55555555|7--77--7|7--77--7-|
E|7-5-7777|--------|5--55--5|5--55--5-|

e|--------|--------|--------|---------|
B|--------|--------|--------|---------|
G|--------|77777777|--------|---------|
D|99999999|77777777|7--77--7|7--77777-|
A|99999999|55555555|7--77--7|7--77777-|
E|77777777|--------|5--55--5|5--50505-|

OUTRO (I'm feeling sorry for your band)

e|--------|--------|--------|--------|
B|--------|--------|--------|--------|
G|--------|--------|--------|--------|
D|7--77--4|4--55---|7--77--4|4--55---|
A|7--77--4|4--55---|7--77--4|4--55---|
E|9--55--2|2--33---|9--55--2|2--33---|

e|--------|--------|--------|--------|
B|--------|--------|--------|--------|
G|--------|--------|--------|--------|
D|7--77--4|4--55---|7--77--4|4--55---|
A|7--77--4|4--55---|7--77--4|4--55---|
E|9--55--2|2--33---|9--55--2|2--33---|

OUTRO (FOR KEYBOARD)

e|10-109p79-9--|---97-79|10-109p79-9--|---97-79-|
B|-----------10|7-7-----|-----------10|7-7------|
G|-------------|--------|-------------|---------|
D|-------------|--------|-------------|---------|
A|-------------|--------|-------------|---------|
E|-------------|--------|-------------|---------|
  1 +2 + a3+4+  1+2+3+4+

e|10-109p79-9--|---97-79|10-109p79-9--|---97---|
B|-----------10|7-7-----|-----------10|7-7-----|
G|-------------|--------|-------------|--------|
D|-------------|--------|-------------|--------|
A|-------------|--------|-------------|--------|
E|-------------|--------|-------------|--------|
Tap to rate this tab
# A B C D E F G H I J K L M N O P Q R S T U V W X Y Z