Song name
# A B C D E F G H I J K L M N O P Q R S T U V W X Y Z

Head Automatica - Cannibal Girl tab

Help us improve GuitareTab! Take a short survey!
Band: Head Automatica
Song: Cannibal Girl
Album: Popaganda 

-Listen to the song for the beating.-

Intro
Guitar 1 (let them ring with wah-wah effect) 
E-------------------------------------------------------|
B-9-7-9-7-9-7-9---9-7-9-7-9-7-9-------------------------|
G-9-8-9-8-9-8-9---9-8-9-8-9-8-9-------------------------|
D-9-8-9-8-9-8-9---9-8-9-8-9-8-9-------------------------|
A-7-6-7-6-7-6-7---7-6-7-6-7-6-7-------------------------|
E-------------------------------------------------------|

Piano Part
E-------4-----4-------7-4-------------------------------| 
B-----5---7-5---7-5-7-----7-5-----7-5-------------------|
G-4-6-------------------------6-4-----6-4-6-------------|
D-------------------------------------------------------|
A-------------------------------------------------------|
E-------------------------------------------------------|

Verse
Both Guitars                                            
E-------------------------------------------------------|
B-------------------------------------------------------|
G-8-8-88--6-6-66-66-6--8-8-88--6-6-66-66-6--------------|
D-9-9-99--7-7-77-77-7--9-9-99--7-7-77-77-7--------------|
A-7-7-77--5-5-55-55-5--7-7-77--5-5-55-55-5--------------|
E-------------------------------------------------------|

con't                                                   x2
E--------------------------|----------------------------|
B--------------------------|----------------------------|
G-13-13-1313--11-11-1111-11|8-8-88--6-6-66-66-6---------|
D--------------------------|9-9-99--7-7-77-77-7---------|
A-11-11-1111---9--9--9-9--9|7-7-77--5-5-55-55-5---------|
E--------------------------|----------------------------|
Stop at the line after the repeat

Chorus
Guitar 1 (distortion)                                                                    
E-------------------------------------------------------|
B-------------------------------------------------------|
G-4-4-44--6-6-66-66-6-----x15-4-4-44--6-6-66-66-6----x15|
D-4-4-44--6-6-66-66-6--7-7----4-4-44--6-6-66-66-6-4-4---|
A-2-2-22--4-4-44-44-4--7-7----2-2-22--4-4-44-44-4-4-4---|
E----------------------5-5------------------------2-2---|

con't 
Guitar 1
E-------------------------------------------------------|
B-------------------------------------------------------|
G-4-4-44--6-6-66-66-6-----x15---------------------------|
D-4-4-44--6-6-66-66-6--7-7----6-66----------------------|
A-2-2-22--4-4-44-44-4--7-7----6-66----------------------|
E----------------------5-5----4-44----------------------|
pm                              ..

Chorus
Guitar 2 (distortion)
E-------------------------------------------------------|
B-------------------------------------------------------|
G---------4-2-1-----2-1-2-1-2-1-2---------4-2-1---------|
D-4-6-7-6-------4-----------------4-6-7-6-------4-4-----|
A-----------------4-------------------------------------|
E-------------------------------------------------------|

con't
Guitar 2
E-------------------------------------------------------|
B-------------------------------------------------------|
G---------4-2-1-----2-1-2-1-2-1-2-1--1-1----------------|
D-4-6-7-6-------4---------------------------------------|
A-----------------4-------------------------------------|
E-------------------------------------------------------|

Verse
Both Guitars                                            
E-------------------------------------------------------|
B-------------------------------------------------------|
G-8-8-88--6-6-66-66-6--8-8-88--6-6-66-66-6--------------|
D-9-9-99--7-7-77-77-7--9-9-99--7-7-77-77-7--------------|
A-7-7-77--5-5-55-55-5--7-7-77--5-5-55-55-5--------------|
E-------------------------------------------------------|

con't                                                   x2
E--------------------------|----------------------------|
B--------------------------|----------------------------|
G-13-13-1313--11-11-1111-11|8-8-88--6-6-66-66-6---------|
D--------------------------|9-9-99--7-7-77-77-7---------|
A-11-11-1111---9--9--9-9--9|7-7-77--5-5-55-55-5---------|
E--------------------------|----------------------------|
Stop at the line after the repeat

Verse 
Piano 
E-------------------------------------------------------|
B---------5-------5--------------------------2----------|
G-9-8--------4-66----4-6-6-6-------------------1--------|
D-----9-7--6-------6---------6-7-4-2-------------2------|
A------------------------------------4-2-2-2-------2----|
E-------------------------------------------------------|

E-------------------------------------------------------|
B-------------------------------------------------------|
G-2-1-1p2-----------1-1-1-2-----------------------------|
D---------4-4-4-2-4---------4-4-4-4---------------------|
A-------------------------------------------------------|
E-------------------------------------------------------|

Chorus
Guitar 1 (distortion)                                                                    
E-------------------------------------------------------|
B-------------------------------------------------------|
G-4-4-44--6-6-66-66-6-----x15-4-4-44--6-6-66-66-6----x15|
D-4-4-44--6-6-66-66-6--7-7----4-4-44--6-6-66-66-6-4-4---|
A-2-2-22--4-4-44-44-4--7-7----2-2-22--4-4-44-44-4-4-4---|
E----------------------5-5------------------------2-2---|

con't 
Guitar 1
E-------------------------------------------------------|
B-------------------------------------------------------|
G-4-4-44--6-6-66-66-6-----x15---------------------------|
D-4-4-44--6-6-66-66-6--7-7----6-66----------------------|
A-2-2-22--4-4-44-44-4--7-7----6-66----------------------|
E----------------------5-5----4-44----------------------|
pm                              ..

Chorus
Guitar 2 (distortion)
E-------------------------------------------------------|
B-------------------------------------------------------|
G---------4-2-1-----2-1-2-1-2-1-2---------4-2-1---------|
D-4-6-7-6-------4-----------------4-6-7-6-------4-4-----|
A-----------------4-------------------------------------|
E-------------------------------------------------------|

con't
Guitar 2
E-------------------------------------------------------|
B-------------------------------------------------------|
G---------4-2-1-----2-1-2-1-2-1-2-1--1-1----------------|
D-4-6-7-6-------4---------------------------------------|
A-----------------4-------------------------------------|
E-------------------------------------------------------|

Bridge:
Guitar 1 (let them ring with wah-wah effect) 
E-------------------------------------------------------|
B-9-7-9-7-9-7-9---9-7-9-7-9-7-9-------------------------|
G-9-8-9-8-9-8-9---9-8-9-8-9-8-9-------------------------|
D-9-8-9-8-9-8-9---9-8-9-8-9-8-9-------------------------|
A-7-6-7-6-7-6-7---7-6-7-6-7-6-7-------------------------|
E-------------------------------------------------------|

Piano Part
E-------4-----4-------7-4-------------------------------| 
B-----5---7-5---7-5-7-----7-5-----7-5-------------------|
G-4-6-------------------------6-4-----6-4-6-------------|
D-------------------------------------------------------|
A-------------------------------------------------------|
E-------------------------------------------------------|

Chorus
Guitar 1 (distortion)                                                                    
E-------------------------------------------------------|
B-------------------------------------------------------|
G-4-4-44--6-6-66-66-6-----x15-4-4-44--6-6-66-66-6----x15|
D-4-4-44--6-6-66-66-6--7-7----4-4-44--6-6-66-66-6-4-4---|
A-2-2-22--4-4-44-44-4--7-7----2-2-22--4-4-44-44-4-4-4---|
E----------------------5-5------------------------2-2---|

con't 
Guitar 1
E-------------------------------------------------------|
B-------------------------------------------------------|
G-4-4-44--6-6-66-66-6-----x15---------------------------|
D-4-4-44--6-6-66-66-6--7-7----6-66----------------------|
A-2-2-22--4-4-44-44-4--7-7----6-66----------------------|
E----------------------5-5----4-44----------------------|
pm                              ..

Chorus
Guitar 2 (distortion)
E-------------------------------------------------------|
B-------------------------------------------------------|
G---------4-2-1-----2-1-2-1-2-1-2---------4-2-1---------|
D-4-6-7-6-------4-----------------4-6-7-6-------4-4-----|
A-----------------4-------------------------------------|
E-------------------------------------------------------|

con't
Guitar 2
E-------------------------------------------------------|
B-------------------------------------------------------|
G---------4-2-1-----2-1-2-1-2-1-2-1--1-1----------------|
D-4-6-7-6-------4---------------------------------------|
A-----------------4-------------------------------------|
E-------------------------------------------------------|

Outro:
Guitar 1
E-------------------------------------------------------|
B-------------------------------------------------------|
G-44444444-66666666-------------------------------------|
D-44444444-66666666-7777777777777777--------------------|
A-22222222-44444444-7777777777777777--------------------|
E-------------------5555555555555555--------------------|

con't                                                   x2
E-------------------------------------------------------|
B-------------------------------------------------------|
G-44444444-66666666-------------------------------------|
D-44444444-66666666-4444444444444444--------------------|
A-22222222-44444444-4444444444444444--------------------|
E-------------------2222222222222222--------------------|

Outro:
Guitar 2 
E-------------------------------------------------------|
B-------------------------------------------------------|
G---------4-2-1-----2-1-2-1-2-1-2---------4-2-1---------|
D-4-6-7-6-------4-----------------4-6-7-6-------4-4-----|
A-----------------4-------------------------------------|
E-------------------------------------------------------|

con't
E-------------------------------------------------------|
B-------------------------------------------------------|
G---------4-2-1-----2-1-2-1-2-1-2-1--1-1----------------|
D-4-6-7-6-------4---------------------------------------|
A-----------------4-------------------------------------|
E-------------------------------------------------------|
Related for Cannibal Girl tab