Headlights - Alternate Shred Scale tab

By Taylor McDaniel
(/) Slide Up  (\) Slide Down  (h) Hammer On  (p) Pull Off  (b) Bend (r) Release (v) Vibrato

E|--13--12--10--12--10---------------------------------------------------------------|
B|----------------------13--11--10--13--11--10--11--10-------------------------------|
G|------------------------------------------------------12--10--9--12--10--9--10--9--|
D|-----------------------------------------------------------------------------------|
A|-----------------------------------------------------------------------------------|
E|-----------------------------------------------------------------------------------|

E|------------------------------------------------------------------------------------------|
B|------------------------------------------------------------------------------------------|
G|------------------------------------------------------------------------------------------|
D|--10--8--7--10--8--7--8--7----------------------------------------------------------------|
A|----------------------------10--8--7--10--8--7--8--7----------------------7--8--7--8--10--|
E|------------------------------------------------------10--8--7--7--8--10------------------|

E|---------------------------------------------------------------------------------------|
B|-------------------------------------------------------------------10--11--10--11--13--|
G|--------------------------------------9--10--9--10--12--9--10--12----------------------|
D|------------7--8--7--8--10--7--8--10---------------------------------------------------|
A|--7--8--10-----------------------------------------------------------------------------|
E|---------------------------------------------------------------------------------------|

E|--------------10--12--10--12--13--|
B|--10--11--13----------------------|
G|----------------------------------|
D|----------------------------------|
A|----------------------------------|
E|----------------------------------|
       http://www.guitartabcreator.com
Tap to rate this tab
 
# A B C D E F G H I J K L M N O P Q R S T U V W X Y Z