Song name
# A B C D E F G H I J K L M N O P Q R S T U V W X Y Z

Headstones - Mystery To Me tab

*= play note 8 times
Intro      x4
G--------------------|
D-999----------------|
A----666-777-66-77-99|
E--------------------|

Verse
G---------------------------------------------|
D---------------------------------------------|
A------------4*-4*-----------2*-2*-4*-4*-7*-7*|
E-7*-7*-2*-2*-----0*-0*-7*-7*-----------------|

Chorus 1
G--------------------------------------------|
D--------------------------------------------|
A--------------------------------------------|
E-4*-4*-7*-7*-0*-0*-2*-3*-4*-4*-7*-7*-0*-0*-2|

Then Verse

Chorus 2
G----------------------------------------------------|
D----------------------------------------------------|
A------------------------------------7*-7*-9*-9-7-6-4|
E-4*-4*-7*-7*-0*-0*-2*-3*-4*-4*-7*-7*----------------|

Bridge
G-------------------------------------------|
D-------------------------------------------|
A------7*-7*-----9*-9-7-6-4------7*-7*-9*-9*|
E-4*-4*-----7*-7*-----------4*-4*-----------|

Then Verse x2
Then Chorus 2
Then Intro x4

Verse 3
G------------------------------------------|
D------------------------------------------|
A-------------4------------------4*-4*-----|
E-7*-7*-2*-2*---0*-2*-7*-7*-2*-2*-----0-2-7|
Tap to rate this tab
# A B C D E F G H I J K L M N O P Q R S T U V W X Y Z