Song name
# A B C D E F G H I J K L M N O P Q R S T U V W X Y Z

Headstones - Heart Of Darkness tab

Help us improve GuitareTab! Take a short survey!
Main Riff
E-------------------------|
B-------------------------|
G-------------7---7-7---7-|
D-2---2-5---5-7---7-7---7-|
A-2---2-5---5-5---5-7---7-|
E-0---0-3---3-------5---5-|

Chorus
E------------------------------------|
B------------------------------------|
G-------------------7-7-7-7----------|
D-2-2-2-2--5-5-5-5--7-7-7-7--7-7-7-7-|
A-2-2-2-2--5-5-5-5--5-5-5-5--7-7-7-7-|
E-0-0-0-0--3-3-3-3-----------5-5-5-5-|
Related for Heart Of Darkness tab