Guitaretab - guitar tabs
Song name
# A B C D E F G H I J K L M N O P Q R S T U V W X Y Z

Heart - Sing Child tab

Song: Sing Child
Album: Dreamboat Annie
Artist: Heart
Based on a youtube performance

Man is this song awesome! Too bad Nancy didnít have a share in this song; but probably 
vocals or something. I was looking for this songís tabs, and the one on Fretplay.com 
some more touching up. So there you go! Enjoy, Kttunstallator3

main riff:
Intro: x4 (this is a simplified version using power chords)
E------------------------------------------------|
B------------------------------------------------|
G-------5--------7--------8--------7---------5---|
D-------5--------7--------8--------7---------5---|
A-------3--------5--------6--------5---------3---|
E--3h5-----3h5-------3h5------3h5------3h5-------|

Or..

v=vibrato
h=hammer on
(this was what it looked like when Roger Fisher played this)
e-------------------------------------|
B-------------------------------------|
G------5v-------7v-------8v-----7---5-|
D------5v-------7v-------8v-----7---5-|
A-------------------------------------|
E--3h5------3h5------3h5-----3h5-3h5--|
[ Tab from: http://www.guitaretab.com/h/heart/189876.html ]
In between verse lyrics:
E--6--5--|
B--6--5--|
G--6--5--|
D--6--5--|
A--------|
E--------|

After last verse (ďhe gonna breakdown and singĒ)x4
E--------------------------------------------------|
B--------------------------------------------------|
G-------------------5b-----------------------------|
D--7p5----------------7----------7p5----------5-7--|
A-------7-5---3----------------------7-5------5-7--|
E----------------------------------------5p3--3-5--|

Repeat main riff

Flute solo---Ann Wilson
Guitar solo--Roger Fisher

Sing child sing
Sing child sing

Melody maker
Giver and taker
Heartbreaker
He want to sing
I know I know I know I know
Try it again
Sooner or later
He gonna breakdown and sing

Holy junkie
Funky monkey
Everybody calls him honey
He donít want to play that game
He gotta play that game
Oh, honey, honey, honey
You got to come down and sing

Dreamer
Machiner
What will you ever do when you blow a fuse
Donít want to stay here
Honey roll
Sooner or later
Youíve gotta get down and sing

Sing child
Related for Sing Child tab