Guitaretab - guitar tabs
Song name
# A B C D E F G H I J K L M N O P Q R S T U V W X Y Z

Heart - Alone tab

Alone 
by Heart


simplied by : dk_lim0507





intro;


     Bm                          G#
E||---------------------------|--------------------------|
B||--2-----2------2-----2--4--|--------------1-----------|
G||--3-----3------3-----3-----|--5-----5--------3--1-----|
D||-----3-----3---6--4--6-----|--6-----6-----1--------4--|
A||--1------------------------|-----6-----6--------------|
E||-------------4-2-----------|--4-----------2-----------|

[ Tab from: http://www.guitaretab.com/h/heart/220043.html ]
               Bm             G#
---------------------------|--------------------------|
---------------2-----2-----|--------------------------|
-----3--3------3-----3-----|--5-----5-----------5-----|
--3------------6--4--6--4--|--6-----6-----7--8--------|
--1--------1---------------|-----6-----6--------6--8--|
-------------4-2-----------|--4--------------8--------|


  A#                           
---------------------------|
---------------2-----2--4--|
--6-----6------3-----3-----|
--8-----8------6--4--6-----|
-----8-----8---------------|
--6----------4-2-----------|


enjoy my friends....

Related for Alone tab
Alone chords by Heart