Song name
# A B C D E F G H I J K L M N O P Q R S T U V W X Y Z

Heart - Sylvan Song tab

-------------------------------------------------------------------------------
			     SYLVAN SONG - Heart
-------------------------------------------------------------------------------
This is the Mandolin TAB for this song, or rather, my interpretaion of.
Just listen to the song for timing and such.
It's my first tab so be gentle my friends.  Tweeking is definitely welcome.

Tabbed By : shawn patrick

Tuning: standard

The song order goes: Fig. 1, 2, 1, 2, 3, 4, 3, 4, 4, 4, 5, 6, 7, 8.

 fig. 1
E|-12p0-0-10p0-0-8p0-0-7p0-0-8p0-0-7p0-0-5p0-0-3p0-0--|
A|------0------0-----0-----0-----0-----0-----0-----0--|
D|----------------------------------------------------|
G-----------------------------------------------------|

 fig. 2  Am#5  G    Am#5   G
E|-------5-----3-----5-----3----|
A|-------3-----2-----3-----2----|
D|-------3-----5-----3-----5----|
G|-0-2-2-2-0-0-0-2-2-2-0-0-0----|


 fig. 3                             fig. 4
E|------0-1-3-5p3p1p0-------|     E|---0-1-0-----0-1-0---------|
A|-----0-------------3-0----|     A|--0-----0-0-0-----0-----0--|
D|-2------------------------|     D|-3-------3-0-------0-2-3---|
G|--------------------------|     G|---------------------------|

  fig. 5  
   G     G             C                   Dm Em F  G  Am
E|-3--5--7--8--10------0--0--0--0--0-------1--3--5--7--8---|
A|-2--3--5--5--10------3--5--7--8--10------0--2--3--5--7---|
D|-0--5--5--5--0-------2--3--5--7--9-------0--2--3--5--7---|
G|-0--0--0--0--0-------0--0--0--0--0-------2--0-----0------|


  fig. 6                                             
E|-10-10-X-8-8-X-7-7-X-5-5-X-3-3---|
A|-10-10-X-7-7-X-5-5-X-3-3-X-2-2---|  x 2
D|-0--0--X-0-0-X-0-0-X-0-0-X-0-0---|
G|-0--0--X-0-0-X-0-0-X-0-0-X-0-0---|


  fig. 7 (Tremelo pick)
E|--0--0--0--0--0----|
A|--10-8--7--5--3----|  x 2
D|--9--7--5--3--2----|
G|--0--0--0--0--0----|


  fig. 8
E|----------------------------0---0---0---|
A|-0--0--X--0--0--0--0--0--0--0---0---0---|
D|-9--9--X--10-9--7--5--7--5--2---2---2---|
G|-7--7--X--9--7--5--4--5--4--5---5---5---|



| /  slide up
| \  slide down
| h  hammer-on
| p  pull-off
| ~  vibrato
| +  harmonic
| x  Mute note
===============================================================================
Tap to rate this tab
# A B C D E F G H I J K L M N O P Q R S T U V W X Y Z