Song name
# A B C D E F G H I J K L M N O P Q R S T U V W X Y Z

Heart - Straight On tab

----------------------------------------------------------------------------
			     "Straight On" - Heart
----------------------------------------------------------------------------


This is a fantastic song with some great vocals. I couldn't find a tab for it so I felt 
like it was my duty to tab it myself as best I can.

Enjoy.


For the verse, you dabble along the lines of these chords.

   Bm     A      G      E

|--7------5------3------0-----|
|--7------5------3------0-----|
|--7------6------4------1-----|
|-----------------------2-----|
|-----------------------2-----|
|-----------------------0-----|

For the chorus, do some more dabbling.


|--2-----0------0-----0---2-----0-----0-----0--2----0-----0------|
|--3-------3------3-------3-------3-----3------3------3-----3----|
|--4---------2------2-----4---------2-----2----4--------2-----2--|
|--4---0------------------4---0----------------4---0-------------|
|--2----------------------2--------------------2-----------------|
|----------------------------------------------------------------|

|--0-----3-----2-----2------|
|--2-----3-----2-----3------|
|--2-----4-----3-----4---3--|
|--2-----5-----4-----4---4--|
|--0-----5-----4-----2---4--|
|--------3-----2---------2--|

For the guitar solo, play these chords.

|--2----3----0----2----2----3----0----3----2----0----2---|
|--2----3----0----2----2----3----0----3----2----0----3---|
|--4----5----2----4----4----5----2----4----3----1----2---|
|--4----5----2----4----4----5----2----5----4----2----0---|
|--2----3----0----2----2----3----0----5----4----2--------|
|-------------------------------------3----2----0--------|

For the actual guitar solo, play.

|--------------------------------------------------10-9-7----------------|
|---------------------------------------------------------10-8-7---------|
|--/11~-----11b12-11-9-7-9-9b11-9---6-7-7b9r7~-------------------9-7-6~--|
|------------------------------------------------------------------------|
|------------------------------------------------------------------------|
|------------------------------------------------------------------------|

|------------------------------------------|
|------------------10-------------9--------|
|-6b7r6b7r6~----------11---9~-------9--7~--|
|------------------------9------------9----|
|------------------------------------------|
|------------------------------------------|

And there. I gave it my best shot. You know how to get in touch with me if you have any questions.
Tap to rate this tab
 
# A B C D E F G H I J K L M N O P Q R S T U V W X Y Z