Song name
# A B C D E F G H I J K L M N O P Q R S T U V W X Y Z

Heart - Dog And Butterfly tab

Help us improve GuitareTab! Take a short survey!
 These are the 100% correct tabs for dog and butterfly I have played the song to check.
 try it on acoustic as well and it sounds much better.


s=slide h=hammer on

Intro:
---------0-------------0-------------0------0-s-0-s-0----------|
---------0-------------0-------------0------0-s-0-s-0----------|
-------4---4---------4---4---------4---4----4-s-6-s-4----------|
-----2-------2-----2-------2-----2-------2--2-s-4-s-2----------|
---0-------------0-------------0------------0-s-0-s-0----------|
-0-------------0-------------0--------------0-s-0-s-0----------|
                                            (strum and slide)

Verse:
-------0-------------0-------------0-------------0-0-0--------|
-------0-------------0--0----------0-------------0-0-0--------|
-----4---4---------4----2--------1---1---------1-2-2-1--------|
---2-------2-----2------2------2-------2-----2---2-2-2--------|
-0-------------0--------0----2-------------2-----2-2-2--------|
-------------0-------------0-------------0--------------------|

-------0-------------0------------0-------0---------------------4---------|
-------0-------------0--0---------0---------0-------------------6---------|
-----4---4---------4----2-------1---1---------1-------------4---4---------|
---2-------2-----2------2-----2-------2---------2---------6-----6---------|
-0-------------0--------0---2---------------------2-----4-------4---------|
-------------0------------0-------------------------0---------------------|

-2-2-2-2-2---------------------------------------------------------------|
-2-2-2-2-2--------4-----4----5-----4-----4----2------2-------------------|
-2-2-2-2-2------4---4-----4----4-----4-----4----4------2-----------------|
-4-4-4-4-4----4-------4----------4-----4----------4------4---------------|
-4-4-4-4-4--2------------------------------------------------------------|
-2-2-2-2-2---------------------------------------------------------------|

------------------------------------------------|
-----3----------3-s-5---------------------------|
---2---2-2h4p2--2-s-4---------------------------|
-0--------------4-s-6---------------------------|
------------------------------------------------|
------------------------------------------------|


Chorus:
---------0-------------0------------0------0-s-0-s-0----------|
---------0-------------0------------0------0-s-0-s-0----------|
-------4---4---------4---4--------4---4----4-s-6-s-4----------|
-----2-------2-----2-------2-----2------2--2-s-4-s-2----------|
---0-------------0-------------0-----------0-s-0-s-0----------|
-0-------------0-------------0-------------0-s-0-s-0----------|

-3-2-0-----0-----0---------------0-------------0--------------|
-0-----3---3-----3--3------------0-------------0--------------|
-0-------2-2---2-2----2--------4---4---------4---4------------|
-0-----------0---------------2-------2-----2-------2----------|
-2-------------------------0-------------0--------------------|
-3-----------------------0-------------0----------------------|

-2-2-2-2-2--------4-----2-2-2-2-2-2--------------------------------------------0--|
-2-2-2-2-2--------5-----2-2-2-2-2-2--------4-----4---------5------5-----5------5--|
-2-2-2-2-2------6-6-6---2-2-2-2-2-2------4---4-----4-----4------2-----2-----2--2--|
-4-4-4-4-4----6-------6-4-4-4-4-4-4----4-------4-----4-4------0-----0-----0----0--|
-4-4-4-4-4--4-----------4-4-4-4-4-4--2--------------------------------------------|
-2-2-2-2-2--------------2-2-2-2-2-2-----------------------------------------------|

(Verse)
(Chorus)

Bridge:
----------------------2-2-2--------0-----------0--------------0------2------------|
-------------5-----5--2-2-2------3-3-3---------2---2-3------3-3-3----3------------|
-----------6---6---6--2-2-2----2---2---2-----2-2-2--------2---2---2--2------------|
---------6-------6-6--4-4-4--0-----0-------2---2--------0-----0------0------------|
-------4-----------4--4-4-4--------------0----------------------------------------|
-0h2s4----------------2-2-2-------------------------------------------------------|

-3-2-0---0-2--------0-----0-----0---------------------------|
-3-----3------------0-----0-----0---------------------------|
-0---------------4----4---4-4---4---------------------------|
-0-------------2--------2-2---2-2---------------------------|
-2-----------0----------------------------------------------|
-3----------------------------------------------------------|

-------------------2-2-2-2--------0-----0---------------0-----3-3--0-0-----|
-------5-----5-----2-2-2-2------3---3---2---2-3-----3-----3---3-3--3-3-----|
-------6---6---6---2-2-2-2----2-------2-2-2-------2---2-----2-0-0--2-2-----|
-------6-6-------6-4-4-4-4--0-----------2-------0-------------0-0--0-0-----|
-------4-----------4-4-4-4------------------------------------2-2----------|
-0h2s4-------------2-2-2-2------------------------------------3-3----------|

-------0-----0-------0------3-2-0---0-2-------0------0---------------0-----|
-------0-0---0-----3---3----3-----3-----------0------0---0---0-----0-------|
-----2-2---2-2---2-------2--0---------------4---4----4-----4---4-----------|
---0---2-----2-0------------0-------------2-------2--2-2---------2---------|
-0-----0-----0--------------2-----------0------------0---------------------|
----------------------------3----------------------------------------------|

-3-3-2-2-0-0-0-0-------0--------------------------------------|
-3-3-3-3-3-3-3-3-------0-s--0-----0---------------------------|
-0-0-0-0-0-0-0-0-------1-s--2--s--7---------------------------|
-0-0-0-0-0-0-0-0-----2-2-s--2--s--6---------------------------|
-------------------2---2-s--4--s--7---------------------------|
-----------------0----------0-----0---------------------------|

(Verse)
(Chorus 2xs)

Outro:
---------0-------------0------0---0---0----0----0---0---0----0---0---|
---------0-------------0------0---0---0----0----0---0---0----0---0---|
-------4---4---------4---4----4-s-6-s-11-s-9--s-4-s-6-s-11-s-9-s-6---|
-----2-------2-----2-------2--2-s-4-s-9--s-7--s-2-s-4-s-9--s-7-s-4---|
---0-------------0------------0---0---0----0----0---0---0----0---0---|
-0-------------0--------------0---0---0----0----0---0---0----0---0---|

And it goes on like that moving that chord up and down the neck like I mentioned before.

End on:
--0---------------------|
--0---------------------|
--13--------------------|
--11--------------------|
--0---------------------|
--0---------------------|
Related for Dog And Butterfly tab